>
 >
The Peoples ELbow

The Peoples ELbow Guitar Tabs

Attack Attack - The Peoples ELbow chords, tabs, tablatures, lyrics

Guitar lessons | Add/correct | Request | Top 50 tabs Artists:  A B C D E F G H I J K L M N O P Q R S T U V W X Y Z 0-9

The Peoples ELbow Guitar Tabs – Attack Attack

CD, Sheet music, Poster

Do you like The Peoples ELbow? Share with your friends now
Bass TabsTabs
The People’s Elbow
By Attack Attack

(0:06-0:20)
D#|--------------------|--------------------|-------------------------|2X
A#|o-------------------|--------------------|--11-11-11~--11-11-11~--o|
F#|--------------------|--------------------|--14-14-14~--14-14-14~---|
C#|--------------------|--------------------|-------------------------|
G#|o----------------0--|----------------0~--|------------------------o|
C#|---0-0-0--0-0-0--0--|--0-0-0--0-0-0—-0~--|-------------------------|

(0:20-0:26)
D#|---------------------------|--------------------------|
A#|---------------------------|--------------------------|
F#|--10-10-10-10-10-10-10-10--|-10-10-10-10-10/12-12-12--|
C#|--x--x--x--x--x--x--x--x---|-x--x--x--x--x--x--x--x---|
G#|--8--8--8--8--8--8--8--8---|-8--8--8--8—-8-/10-10-10--|
C#|---------------------------|--------------------------|

D#|---------------------------|---------------------------|
A#|---------------------------|---------------------------|
F#|--12/14-14-14-14-14-14-14--|--14-14-14-14-14-14-14-14--|
C#|--x--x--x--x--x--x--x--x---|--x--x--x--x--x--x--x--x---|
G#|--10/12-12-12-12-12-12-12--|--12-12-12-12-12-12-12-12—-|
C#|---------------------------|---------------------------|

(0:26-0:33)
D#|-------------------------|----------------------|2X
A#|o------------------------|---------------------o|
F#|------------------9-9-9--|--9-9-9-9-9/10-10-10--|
C#|------------------x-x-x--|--x-x-x-x-x-x--x--x---|
G#|o---------------0-7-7-7--|--7-7-7-7-7/8--8--8--o|
C#|--0-0-0--0-0-0--0--------|----------------------|

(0:33-0:40)
D#|---------------------------|--------------------------|
A#|---------------------------|--------------------------|
F#|--10-10-10-10-10-10-10-10--|-10-10-10-10-10/12-12-12--|
C#|--x--x--x--x--x--x--x--x---|-x--x--x--x--x--x--x--x---|
G#|--8--8--8--8--8--8--8--8---|-8--8--8--8—-8-/10-10-10--|
C#|---------------------------|--------------------------|

D#|---------------------------|---------------------------|
A#|---------------------------|---------------------------|
F#|--12/14-14-14-14-14-14-14--|--14-14-14-14-14-14-14-14--|
C#|--x--x--x--x--x--x--x--x---|--x--x--x--x--x--x--x--x---|
G#|--10/12-12-12-12-12-12-12--|--12-12-12-12-12-12-12-12—-|
C#|---------------------------|---------------------------|

(0:40-0:46)
D#|-------------------------|----------------------|2X
A#|o------------------------|---------------------o|
F#|------------------9-9-9--|--9-9-9-9-9/10-10-10--|
C#|------------------x-x-x--|--x-x-x-x-x-x--x--x---|
G#|o---------------0-7-7-7--|--7-7-7-7-7/8--8--8--o|
C#|--0-0-0--0-0-0--0--------|----------------------|

(0:46-0:50)
D#|------|
A#|------|
F#|------|
C#|--0~--|
G#|--0~--|
C#|--0~--|

(0:50-1:04)
D#|---------------|---------------|----------------------|
A#|--10-10-10-10--|--10-10-10-10--|----------------------|
F#|--13-13-13-13--|--13-13-13-13--|----------------------|
C#|---------------|---------------|----------------------|
G#|---------------|---------------|---------0---------0--|
C#|---------------|---------------|--0-0-0--0--0-0-0--0--|

D#|---------------|---------------|--------------------------|
A#|--10-10-10-10--|--10-10-10-10--|--------------------------|
F#|--13-13-13-13--|--13-13-13-13--|--------------------------|
C#|---------------|---------------|--------------------------|
G#|---------------|---------------|---------0----------------|
C#|---------------|---------------|--0-0-0--0--0-0-0--0-0-0--|

D#|---------------|---------------|----------------------|
A#|--10-10-10-10--|--10-10-10-10--|----------------------|
F#|--13-13-13-13--|--13-13-13-13--|----------------------|
C#|---------------|---------------|----------------------|
G#|---------------|---------------|---------0---------0--|
C#|---------------|---------------|--0-0-0--0--0-0-0--0--|

D#|---------------|---------------|----------------------|
A#|--10-10-10-10--|--10-10-10-10--|----------------------|
F#|--13-13-13-13--|--13-13-13-13--|----------------------|
C#|---------------|---------------|----------------------|
G#|---------------|---------------|---------0---------0--|
C#|---------------|---------------|--0-0-0--0--0-0-0--0--|

(1:04-1:06)
D#|------|
A#|------|
F#|------|
C#|--0~--|
G#|--0~--|
C#|--0~--|

(1:06-1:26)
D#|--------------------------------|------------------|
A#|o-------------------------------|------------------|
F#|---10~-10-10-10-10-10-10-10-10--|--10-10-10-10/12--|
C#|---x---x--x--x--x--x--x--x--x---|--x—-x--x--x--x---|
G#|o--8~--8--8--8--8--8--8--8--8---|--8--8--8--8-/10--|
C#|--------------------------------|------------------|

D#|-------------------------|-------------------------|
A#|-------------------------|-------------------------|
F#|--14~-14-14-14-14-14-14--|--12~-12-12-12-12-12-12--|
C#|--x---x--x--x--x--x--x---|--x---x--x--x--x--x--x---|
G#|--12~-12-12-12-12-12-12--|--10~-10-10-10-10-10-10--|
C#|-------------------------|-------------------------|

D#|-------------------------------|------------------|
A#|-------------------------------|------------------|
F#|--10~-10-10-10-10-10-10-10-10--|--10-10-10-10/12--|
C#|--x---x--x--x--x--x--x--x--x---|--x—-x--x--x--x---|
G#|--8~--8--8--8--8--8--8--8--8---|--8--8--8--8-/10--|
C#|-------------------------------|------------------|

D#|------------------|-----------------|2X
A#|------------------|----------------o|
F#|--9~-9-9-9-9-9-9--|--7~-7-7-7-7-7---|
C#|--x--x-x-x-x-x-x--|--x--x-x-x-x-x---|
G#|--7~-7-7-7-7-7-7--|--5~-5-5-5-5-5--o|
C#|------------------|-----------------|

(1:26-1:47)
D#|-----------------|---------------|--------------|---------------|4X
A#|o----------------|---------------|----11-11-11--|----11-11-11--o|
F#|-----------------|---------------|----14-14-14--|----14-14-14---|
C#|-----------------|---------------|--------------|---------------|
G#|o----------------|---------------|--0-----------|--0-----------o|
C#|---0-0-0--0-0-0--|--0-0-0--0-0-0-|--0-----------|--0------------|

(1:47-1:49)
D#|------|
A#|------|
F#|------|
C#|--0~--|
G#|--0~--|
C#|--0~--|

(1:49-2:10)
D#|--------------------------------|------------------|
A#|o-------------------------------|------------------|
F#|---10~-10-10-10-10-10-10-10-10--|--10-10-10-10/12--|
C#|---x---x--x--x--x--x--x--x--x---|--x—-x--x--x--x---|
G#|o--8~--8--8--8--8--8--8--8--8---|--8--8--8--8-/10--|
C#|--------------------------------|------------------|

D#|-------------------------|-------------------------|
A#|-------------------------|-------------------------|
F#|--14~-14-14-14-14-14-14--|--12~-12-12-12-12-12-12--|
C#|--x---x--x--x--x--x--x---|--x---x--x--x--x--x--x---|
G#|--12~-12-12-12-12-12-12--|--10~-10-10-10-10-10-10--|
C#|-------------------------|-------------------------|

D#|-------------------------------|------------------|
A#|-------------------------------|------------------|
F#|--10~-10-10-10-10-10-10-10-10--|--10-10-10-10/12--|
C#|--x---x--x--x--x--x--x--x--x---|--x—-x--x--x--x---|
G#|--8~--8--8--8--8--8--8--8--8---|--8--8--8--8-/10--|
C#|-------------------------------|------------------|

D#|------------------|-----------------|2X
A#|------------------|----------------o|
F#|--9~-9-9-9-9-9-9--|--7~-7-7-7-7-7---|
C#|--x--x-x-x-x-x-x--|--x--x-x-x-x-x---|
G#|--7~-7-7-7-7-7-7--|--5~-5-5-5-5-5--o|
C#|------------------|-----------------|

(2:10-2:16)
D#|------|
A#|------|
F#|------|
C#|--0~--|
G#|--0~--|
C#|--0~--|

(2:16-2:30)
D#|---------------------|--------------------|-------------------------|2X
A#|o--------------------|--------------------|--11-11-11~--11-11-11~--o|
F#|---------------------|--------------------|--14-14-14~--14-14-14~---|
C#|---------------------|--------------------|-------------------------|
G#|o----------------0~--|----------------0~--|------------------------o|
C#|---0-0-0--0-0-0—-0~--|--0-0-0--0-0-0—-0~--|-------------------------|

(2:30-2:37)
D#|------|
A#|------|
F#|------|
C#|--0~--|
G#|--0~--|
C#|--0~--|

Please rate and/or comment.
If you want any songs tabbed out, just PM me and I'll tab them out within a day or two.





Comments


Popular Attack Attack tabs & chords
Bro, Ashley's Here Bass Tabs
Dr Shavargo Part 3 Bass Tabs
Shred, White, And Blue Bass Tabs
This Is A Test Bass Tabs
Were Not The Enemy Bass Tabs
Lonely Chords
Stick Stickly Drum Tabs
Party Foul Tabs
Smokahontas 1 Tabs
You And Me Intro Tabs


Song lyrics



↑ Back to top | Tablatures and chords are parodies/interpretations of the original songs. You may use it for private study, scholarship, research or language learning purposes only
© 2014 AZChords.com Contact us | Privacy policy | DMCA | Add/correct tabs | Request tabs | Top 50 tabs