>
 >
Smokahontas 1

Smokahontas 1 Guitar Tabs

Attack Attack - Smokahontas 1 chords, tabs, tablatures, lyrics

Guitar lessons | Add/correct | Request | Top 50 tabs Artists:  A B C D E F G H I J K L M N O P Q R S T U V W X Y Z 0-9

Smokahontas 1 Guitar Tabs – Attack Attack

CD, Sheet music, Poster

Do you like Smokahontas 1? Share with your friends now
Bass TabsBass Tabs v2TabsTabs v2Tabs v3
-------------------------------------------------------------------------------
                             Smokahontas  Attack Attack!
-------------------------------------------------------------------------------


super easy song

Tuning: Drop B  B F# B E G# C#

Intro
|----------------------------------------------------------------|
|----------------------------------------------------------------|
|----------------------------------------------------------------|
|----------------------------------------------------------------|x2
|--00-00--00-00-0--0-0-00--00-00---------00-00--00-00-0--0-0-00--|
|--11-11--11-11-1--1-1-11--11-11--3b-3b--11-11--11-11-1--1-1-11--|
   pm ..  .. .. .  . . ..  .. ..         pm ..  .. .. .  . . ..

Verse
basically the same as the intro. timing slighty different the first time its played and 
bends are not used the second time played

|----------------------------------------------------------------|
|----------------------------------------------------------------|
|----------------------------------------------------------------|
|----------------------------------------------------------------|x2
|--00-00--00-00-0--0-0-00--00-00---------00-00--00-00-0--0-0-00--|
|--00-00--00-00-0--0-0-00--00-00--3b-3b--00-00--00-00-0--0-0-00--|
   pm ..  .. .. .  . . ..  .. ..         pm ..  .. .. .  . . ..

Chorus
|------------------------------|
|------------------------------|
|------------------------------|
|-5------8------0------3-------|x2
|-5-(x8)-8-(x8)-0-(x8)-3-(x8)--|
|-5------8------0------3-------|

|------------------------|
|------------------------|
|------------------------|
|-8-------3------7-------|
|-8-(x16)-3-(x8)-7-(x8)--|
|-8-------3------7-------|

Breakdown 1
Im not too sure about the second part, but thats what it sounds like
|---------------------------------------------------------------|
|---------------------------------------------------------------|
|---------------------11/12\11----------------------------------|
|-3-5-0-1-0---------------------3-5-0-1-0-----------------------|x2
|-3-5-0-1-0---0000000-9-/10\9---3-5-0-1-0---00000000-3333-0000--|
|-3-5-0-1-0---0000001-----------3-5-0-1-0---00000000-3333-1111--|
              pm.....                       pm................

Breakdown 2
|------------------------------------------------|
|------------------------------------------------|
|------------------------------------------------|
|------------------------------------------------|x2
|-----------0-----0-----------------0-----5------|
|-000-0-1p0---1p0---1p0---000-0-1p0---1p0---1p0--|


Chorus
|------------------------------|
|------------------------------|
|------------------------------|
|-5------8------0------3-------|x2
|-5-(x8)-8-(x8)-0-(x8)-3-(x8)--|
|-5------8------0------3-------|

|------------------------|
|------------------------|
|------------------------|
|-8-------3------7-------|x2
|-8-(x16)-3-(x8)-7-(x8)--|
|-8-------3------7-------|


Rave part with just Johnny and synthesizers


Breakdown 3
same as breakdown 2 with the exception that the 5th fret is used more
|------------------------------------------------|
|------------------------------------------------|
|------------------------------------------------|
|------------------------------------------------|x2
|-----------0-----5----------------0-----5-------|
|-000-0-1p0---1p0---1p0---000-0-1p0---1p0---1p0--|


Breakdown 4
|------------------------------------------------|
|------------------------------------------------|
|------------------------------------------------|
|-0000-1p0-4---------1p0------0000-1p0-6~666666--|x4
|-0000-1p0-4--0-0-0--1p0-3p0--0000-1p0-6~666666--|
|-0000-1p0-4--0-0-0--1p0------0000-1p0-6~666666--|
              pm...

Breakdown 5
|-------------------|
|-------------------|
|-------------------|
|-11111-1-11-1-1111-|
|-11111-1-11-1-1111-|
|-11111-1-11-1-1111-|

Breakdown 6
|---------------------------------------------------------------|
|---------------------------------------------------------------|
|---------------------------------------------------------------|
|---------------------------------------------------------------|
|-0-0-0-0-0--0--00--0-0000000--0-0-0-0-0--0--00--0-0000000------|
|-1-1-1-1-1--1--11--1-1111111--1-1-1-1-1--1--11--1-1111111--3b--|
pm. . . . .  .  ..  . .......  . . . . .  .  ..  .........

Breakdown 7
|-----------------------------------------------------------|
|-----------------------------------------------------------|
|-----------------------------------------------------------|
|-----------------------------------------------------------|
|-0-0-0-0-0--0--00--0-0000000--0-0-0-0-0--0--00--0-0000000--|
|-0-0-0-0-0--0--00--0-0000000--0-0-0-0-0--0--00--0-0000000--|
pm. . . . .  .  ..  . .......  . . . . .  .  ..  . .......

Outro
|------------------------------|
|------------------------------|
|------------------------------|
|------------------------------|x4
|------------------5~----------|
|-0-0-0-0-0--3b-00----0000000--|


************************************

| /   slide up
| \   slide down
| p   pull-off
| ~   vibrato
| b   Bend


************************************





Comments


Popular Attack Attack tabs & chords
Dr Shavargo Part 3 1 Bass Tabs
The Peoples Elbow 3 Bass Tabs
You And Me Bass Tabs
Lonely 1 Chords
You And Me Chords
A For Andrew Tabs
Outro Tabs
Renob Nevada Intro Tabs
Smokahontas Tabs
The Peoples Elbow 1 Tabs


Song lyrics



↑ Back to top | Tablatures and chords are parodies/interpretations of the original songs. You may use it for private study, scholarship, research or language learning purposes only
© 2014 AZChords.com Contact us | Privacy policy | DMCA | Add/correct tabs | Request tabs | Top 50 tabs