>
 >
Smokahontas

Smokahontas Guitar Tabs

Attack Attack - Smokahontas chords, tabs, tablatures, lyrics

Guitar lessons | Add/correct | Request | Top 50 tabs Artists:  A B C D E F G H I J K L M N O P Q R S T U V W X Y Z 0-9

Smokahontas Guitar Tabs – Attack Attack

CD, Sheet music, Poster

Do you like Smokahontas? Share with your friends now
Bass TabsBass Tabs v2TabsTabs v2Tabs v3
			     Smokahontas – Attack Attack!

 
I know this isn't 100 accurate, this was my interpretation of the song when i first heard it

Tuning: Drop B – B F# B E G# C#

Intro
|---------------------------------------------------------------------------|
|---------------------------------------------------------------------------|
|---------------------------------------------------------------------------|
|---------------------------------------------------------------------------|
|-0-0-0-0--0-0-0-0-0-0--0-0-0-0--------------------0-0-0-0--0-0-0-0-0-0-----|
|-1-1-1-1--1-1-1-1-1-1--1-1-1-1---3h6p4p3-3h6p4p3--1-1-1-1--1-1-1-1-1-1-----| x2
pm-----------------------------                  pm--------------------

 the rhythm is easy to figure out 

playing hammer ons and pull offs, play whatever you feel sounds better to you personally

Verse  
|---------------------------------------------------------------------------|
|---------------------------------------------------------------------------|
|---------------------------------------------------------------------------|
|-0-0-0-0--0-0-0-0-0-0--0-0-0-0--------------------0-0-0-0--0-0-0-0-0-0-----|
|-0-0-0-0--0-0-0-0-0-0--0-0-0-0--------------------0-0-0-0--0-0-0-0-0-0-----|
|-0-0-0-0--0-0-0-0-0-0--0-0-0-0---3h6p4p3-3h6p4p3--0-0-0-0--0-0-0-0-0-0-----| x2
pm-----------------------------                  pm--------------------

Don’t play hammer ons or pull offs second time round

Chorus
|---------------------------------------------------------------------------|
|---------------------------------------------------------------------------|
|---------------------------------------------------------------------------|
|-5-5-5-5-5-5-5-5--8-8-8-8-8-8-8-8--0-0-0-0-0-0-0-0--3-3-3-3-3-3-3-3--------|
|-5-5-5-5-5-5-5-5--8-8-8-8-8-8-8-8--0-0-0-0-0-0-0-0--3-3-3-3-3-3-3-3--------|
|-5-5-5-5-5-5-5-5--8-8-8-8-8-8-8-8--0-0-0-0-0-0-0-0--3-3-3-3-3-3-3-3--------| x2

|---------------------------------------------------------------------------|
|---------------------------------------------------------------------------|
|---------------------------------------------------------------------------|
|-8-8-8-8-8-8-8-8--8-8-8-8-8-8-8-8--3-3-3-3-3-3-3--7-7-7-7-7-7-7-7----------|
|-8-8-8-8-8-8-8-8--8-8-8-8-8-8-8-8--3-3-3-3-3-3-3--7-7-7-7-7-7-7-7----------|
|-8-8-8-8-8-8-8-8--8-8-8-8-8-8-8-8--3-3-3-3-3-3-3--7-7-7-7-7-7-7-7----------|

|---------------------------------------------------------------------------|
|---------------------------------------------------------------------------|
|-----------------------11/12/11--------------------1010101010101010--------|
|-3-5-0-1-0-----------------------3-5-0-1-0---------------------------------|
|-3-5-0-1-0-------------9-/10/9---3-5-0-1-0---------8-8-8-8-8-8-8-8---------|
|-3-5-0-1-0---000000-0------------3-5-0-1-0---0000--------------------------|
            pm--------                      pm---

Breakdown 1
|-------------------------|--|-----------------------|
|-------------------------|--|-----------------------|
|-------------------------|--|-----------------------|
|-------------------------|--|---------------0-0-0-0-|
|-------------0-----0-----|x3|---------0-----0-0-0-0-|
|-000-1p0-000---1p0---1p0-|--|-000-1p0---1p0-0-0-0-0-|
        pm---             

Chorus
|---------------------------------------------------------------------------|
|---------------------------------------------------------------------------|
|---------------------------------------------------------------------------|
|-5-5-5-5-5-5-5-5--8-8-8-8-8-8-8-8--0-0-0-0-0-0-0-0--3-3-3-3-3-3-3-3--------|
|-5-5-5-5-5-5-5-5--8-8-8-8-8-8-8-8--0-0-0-0-0-0-0-0--3-3-3-3-3-3-3-3--------|
|-5-5-5-5-5-5-5-5--8-8-8-8-8-8-8-8--0-0-0-0-0-0-0-0--3-3-3-3-3-3-3-3--------| x2

|---------------------------------------------------------------------------|
|---------------------------------------------------------------------------|
|---------------------------------------------------------------------------|
|-8-8-8-8-8-8-8-8--8-8-8-8-8-8-8-8--3-3-3-3-3-3-3--7-7-7-7-7-7-7-7----------|
|-8-8-8-8-8-8-8-8--8-8-8-8-8-8-8-8--3-3-3-3-3-3-3--7-7-7-7-7-7-7-7----------|
|-8-8-8-8-8-8-8-8--8-8-8-8-8-8-8-8--3-3-3-3-3-3-3--7-7-7-7-7-7-7-7----------| x2


Techno rave bit


Breakdown 2
|---------------------------------------------------------|
|---------------------------------------------------------|
|---------------------------10-10-10-101010-121212-141414-|
|---------------------------------------------------------|
|-------------0-----0-------8--8--8--8-8-8--101010-121212-|
|-000-1p0-000---1p0---1p0---------------------------------| x2
        pm---             

Breakdown 3
|-------------------------------------------------------|
|-------------------------------------------------------|
|-------------------------------------------------------|
|-0-0-0-1-0--4--000------0-1---0-0-0-1-0--6-6-6-6-6-6-6-|
|-0-0-0-1-0--4--000------0-1---0-0-0-1-0--6-6-6-6-6-6-6-|
|-0-0-0-1-0--4--000--1p0-0-1---0-0-0-1-0--6-6-6-6-6-6-6-| x4
              pm---
Breakdown 4
|-------------------|
|-------------------|
|-------------------|
|-11111-1-11-1-1111-|
|-11111-1-11-1-1111-|
|-11111-1-11-1-1111-|
  ------------ ----
  one guitar   both guitars 

Breakdown 5
|-------------------------------------------------------------------|
|-------------------------------------------------------------------|
|-------------------------------------------------------------------|
|-------------------------------------------------------------------|
|-0-0-0-0-0--0--0-0--0-0000000--0-0-0-0-0--0--0-0--0-0000000--------|
|-1-1-1-1-1--1--1-1--1-1111111--1-1-1-1-1--1--1-1--1-1111111--3/7\3-|
pm---------  -  ---  - -------  ---------  -  ---  - -------

Breakdown 6
|----------------------------------------------|
|----------------------------------------------|
|----------------------------------------------|
|----------------------------------------------|
|-0-0-0-0-0--0--0-0-0--0-0-0-0-0-0-0--0--0-0-0-|
|-0-0-0-0-0--0--0-0-0--0-0-0-0-0-0-0--0--0-0-0-|
similar rhythm to breakdown 5

Outro
|------------------------------------|
|------------------------------------|
|------------------------------------|
|------------------------------------|
|------------------------------------|
|-0-0-0-0-0--3/7\3--0-0-12~-0000-0-0-| x4


************************************

| /   slide up
| \   slide down
| h   hammer-on
| p   pull-off
| ~   vibrato
| +   harmonic
| x   Mute note
| b   Bend
| pb  Pre-bend
| br  Bend release
| pbr Pre-bend release
| brb Bend release bend

************************************





Comments


Popular Attack Attack tabs & chords
Dr Shavargo Part 3 Bass Tabs
Shred White And Blue Bass Tabs
This Is A Test Bass Tabs
Lonely Chords
Lonely 1 Chords
Lonely 3 Chords
Interlude 1 Tabs
Last Breath Tabs
Sexual Man Chocolate 2 Tabs
Lonely 2 Ukulele


Song lyrics



↑ Back to top | Tablatures and chords are parodies/interpretations of the original songs. You may use it for private study, scholarship, research or language learning purposes only
© 2014 AZChords.com Contact us | Privacy policy | DMCA | Add/correct tabs | Request tabs | Top 50 tabs