» » »

Attack Attack, Kickin' Wing, Animal Doctor Tabs (ver.1)

Artists:  A B C D E F G H I J K L M N O P Q R S T U V W X Y Z # 

Kickin' Wing, Animal Doctor Tabs (ver.1)

Attack Attack Tabs
 Rating:
4/5 (4 votes)
Kickin' Wing, Animal Doctor lessons Tabs too difficult? Try these video lessons and learn fast
1
                My second tab
it's in drop c#

Intro:
----------------------------------------------|
---------------10-10-10-10------------(-10---)| <=== end on that on the last
---------------13-13-13-13------------(-13b14)|(x3)  time
----------------------------------------------|
----------------------------------------------|
-/8--\1--/12--------------/8--\1--/12b--------|
Chorus:
----------------------------------------------------|
----------------------------------------------------|
--10-10-10-10-10----10-10-10-10-10---12-12-12-12-12-|
-0-x--x--x--x--x--0-x--x--x--x--x--8-x--x--x--x--x--|
-0-8--8--8--8--8--0-8--8--8--8--8--8-10-10-10-10-10-|
-0----------------0----------------8----------------|

---------------|
---------------|
---9-9-9-9-9---| X2
-5-x-x-x-x-x---|
-5-7-7-7-7-7---|
-5-------------|

Little Breakdown:
---------------------------------------------------|
--6-6-6-6-6-6-6-6-------6-6-6-6-6-6-6-6------------|
--9-9-9-9-9-9-9-9-------9-9-9-9-9-9-9-9------------|Figure out strumming
------------------12\------------------------------|
------------------12\-------------------10b--------|
------------------12\------------------------------|

-------------------------|
-------------------------|
-------------------------|
----------------0~-------|
-000--000--000--0~-------|
-111--111--111--0~-------|


Repeat Chorus x4

Breakdown
----------------------------------------------|
----------------------------------------------|
----------------------------------------------|(x2)
-0~-------------------------------------------|
-0~--0000-000000-0000-0000-00000-00-3*--------|
-0~--0000-000000-0000-0000-00000-00-----------|

I've taken all this time ..
------------------------------------------------|
------------------------------------------------|
-10-------14---12-------9-----------------------|(x2) figure out strumming
-x--------x----x--------x-----------------------|
-8--------12---10-------7-----------------------|
------------------------------------------------|

---------------------------------------------------------|
---------------------------------------------------------|
--------------10-------14---12-------9---66-66-66-66-66--|(x2) 
-0~--x--------x--------x----x--------x---99-99-99-99-99--| 
-0~--x-pick---8--------12---10-------7-------------------|  
-0~--x-slide\\-------------------------------------------|

Breakdown
----------------------------------------|
----------------------------------------|
----------------------------------------|(x4)
----------------------------------------|
---000-0000-000-0000-0000-000-----------|
---000-0000-000-0000-0000-000-----------|

Lead comes in with this after the second time
----------------------------------------|
----------------------------------------|
----------------------------------------|(x2)
----------------------------------------|
---12-10-7h8-5h7-3h5-2h3p2h3p2----------|
----------------------------------------|

--------|
--------|
--------|
--0-----|
--0-----|
--0-----|
            
Submit corrections

comments powered by Disqus
↑ Back to top | Attack Attack Tabs for Kickin' Wing, Animal Doctor. Lyrics for acoustic guitar and electric guitar. 1 Tablatures and chords are parodies/interpretations of the original songs. You may use it for private study, scholarship, research or language learning purposes only