» » »

Attack Attack, Kickin' Wing, Animal Doctor Bass tabs (ver.1)

Artists:  A B C D E F G H I J K L M N O P Q R S T U V W X Y Z # 

Kickin' Wing, Animal Doctor Bass tabs (ver.1)

Attack Attack Tabs
Rating:
0/5 (0 votes)
Kickin' Wing, Animal Doctor lessons Tabs too difficult? Try these video lessons and learn fast
                		ATTACK ATTACK		-	  KICKIN' WING, ANIMAL DOCTOR
INTRO
|--------------------------------|
|--------------------------------|
|--------------------------------|  x4
|--8\-1/-12\----------8\-1/-12\--|

CHORUS
|---------------------------------------------------|
|---------------------------------------------------|
|-----88888-----88888-----1010101010----1010101010--|  x2
|--0~---------0~--------8-------------8-------------|
PT 2
|---------------------------------|
|---------------------------------|
|----7*7*7*7*7*-77*---7*7*7*7*7*--|  x2
|--5~---------------5~------------|

MINI BREAKDOWN
|------------------|
|--------------0~--|
|--------------0~--|
|--111~111~111~0~--|

REPEAT CHORUS x4 (without PT 2)

BREAKDOWN
|--0~-| |----------------------------------------|
|--0~-| |----------------------------------------|
|--0~-| |----------------------------------3bnd--|  x2
|--0~-| |-0000-00000000-0000-0000-00000-00-------|

BRIDGE
|-------------------------------------------|
|-------------------------------------------|
|--8-(x14)-1010--12-(x16)-10-(x16)-7-(x16)--|  x2
|-------------------------------------------|

|------| |----------------------------------------------------|
|--0~--| |------------------------------------99-99-99-99-99--|
|--0~--| |----8-(x14)-1010-12-(x16)-10-(x16)------------------|  x2
|--0~--| |----------------------------------------------------|

BREAKDOWN BREAKDOWN
|------------------------------|      |------|
|------------------------------|      |------|
|------------------------------|  x4  |------|
|--000-0000-000-0000-0000-000--|      |--0*--|
            
Submit corrections

comments powered by Disqus
↑ Back to top | Attack Attack Bass for Kickin' Wing, Animal Doctor. Lyrics for acoustic guitar and electric guitar. Tablatures and chords are parodies/interpretations of the original songs. You may use it for private study, scholarship, research or language learning purposes only