» » »

Attack Attack, Interlude Bass tabs (ver.2)

Artists:  A B C D E F G H I J K L M N O P Q R S T U V W X Y Z # 

Interlude Bass tabs (ver.2)

Attack Attack Tabs
Rating:
0/5 (0 votes)
Interlude lessons Tabs too difficult? Try these video lessons and learn fast
                Play this 4 times
|---7---7---7-9-10-|-------------9-10-|---10--10--10-14-12-|-------------10-9-|
|------------------|---8---8---8------|--------------------|--10--10--10------|
|-5---5---5--------|------------------|-8---8---8----------|------------------|
|------------------|-6---6---6--------|--------------------|-8---8---8--------|

 Play this 4 times
|---7---7---7---7-|-----------------|--10--10--10--10---|-----------------|
|-----------------|-----------------|-------------------|-----------------|
|-----------------|-----------------|-------------------|-----------------|
|-----------------|---6---6---6---6-|-------------------|---8---8---8---8-|

Play this 4 times
|----|----|----|----|
|----|----|----|----|
|----|----|----|----|
|-8\-|----|-8\-|-8\-|

|---7---7---7---7-|-----------------|--10--10--10--10---|-----------------|
|-----------------|-----------------|-------------------|-----------------|
|-----------------|-----------------|-------------------|-----------------|
|-----------------|---6---6---6---6-|-------------------|---8---8---8---8-|

|---7---7---7---7-|-----------------|----|----|
|-----------------|-----------------|----|----|
|-----------------|-----------------|----|----|
|-----------------|---6---6---6---6-|-8\-|----|

 Play this 4 times
|---7---7---7---7-|-----------------|--10--10--10--10---|-----------------|
|-----------------|-----------------|-------------------|-----------------|
|-----------------|-----------------|-------------------|-----------------|
|-----------------|---6---6---6---6-|-------------------|---8---8---8---8-|

End.
            
Submit corrections

comments powered by Disqus
↑ Back to top | Attack Attack Bass for Interlude. Lyrics for acoustic guitar and electric guitar. Tablatures and chords are parodies/interpretations of the original songs. You may use it for private study, scholarship, research or language learning purposes only