» » »

Attack Attack, Interlude Bass tabs (ver.1)

Artists:  A B C D E F G H I J K L M N O P Q R S T U V W X Y Z # 

Interlude Bass tabs (ver.1)

Attack Attack Tabs
 Rating:
4.3/5 (6 votes)
Interlude lessons Tabs too difficult? Try these video lessons and learn fast
                                               Attack Attack!
                                  Interlude

Simple and awesome song. Just 2 riffs and a fill. It can't be easier.
PS. All credit goes to Nightbyer! (:

 Play this 4 times
|---6---6---6-8-9-|-------------8-9-|---9---9---9-13-11-|-------------9-8-|
|-----------------|---7---7---7-----|-------------------|---9---9---9-----|
|-4---4---4-------|-0---0---0-------|-7---7---7---------|-----------------|
|-----------------|-----------------|-------------------|-7---7---7-------|

 Play this 4 times
|---6---6---6---6-|-----------------|---9---9---9----9--|-----------------|
|-----------------|-----------------|-------------------|-----------------|
|-----------------|---0---0---0---0-|-------------------|-----------------|
|-----------------|-----------------|-------------------|---7---7---7---7-|

 Play this 4 times
|----|----|----|----|
|----|----|----|----|
|----|----|----|----|
|-7\-|----|-7\-|-7\-|

|---6---6---6---6-|-----------------|---9---9---9----9--|-----------------|
|-----------------|-----------------|-------------------|-----------------|
|-----------------|---0---0---0---0-|-------------------|-----------------|
|-----------------|-----------------|-------------------|---7---7---7---7-|

|---6---6---6---6-|-----------------|----|----|
|-----------------|-----------------|----|----|
|-----------------|---0---0---0---0-|----|----|
|-----------------|-----------------|-7\-|----|

 Play this 4 times
|---6---6---6---6-|-----------------|---9---9---9----9--|-----------------|
|-----------------|-----------------|-------------------|-----------------|
|-----------------|---0---0---0---0-|-------------------|-----------------|
|-----------------|-----------------|-------------------|---7---7---7---7-|

End.
            
Submit corrections

comments powered by Disqus
↑ Back to top | Attack Attack Bass for Interlude. Lyrics for acoustic guitar and electric guitar. Tablatures and chords are parodies/interpretations of the original songs. You may use it for private study, scholarship, research or language learning purposes only