» » »

Attack Attack, Dr Shavargo Bass tabs (ver.2)

Artists:  A B C D E F G H I J K L M N O P Q R S T U V W X Y Z # 

Dr Shavargo Bass tabs (ver.2)

Attack Attack Tabs
Rating:
0/5 (0 votes)
Dr Shavargo lessons Tabs too difficult? Try these video lessons and learn fast
                "(Part3)

Dr Shavargo Pt.3
Attack Attack!
Someday Came Suddenly

I didn’t think the first version sounded right and there were some fill ins that weren’t
even meant to be there so I fixed it up. Also I tried to make it similar to Stick
Stickly (The use of the 8th 5th and 10th fret). I also corrected the breakdown because 
the opens weren’t in the right pattern and etc. On the side note it's a very easy song to play
and not my favourite genre, but oh well. I think it's 99% correct :)


Legend:
x – mute
~ - vibrato … just let it ring…
* - tapped harmonic

INTRO (0:08-0:23) (after electronica part)
F#|--------------------------------|
C#|--------------------------------|
G#|--------------------------------|
C#|----0(x16)----5(x8)----8(x8)----|X2

(0:23-0:39)
F#|----------------------------------------------------------------------|
C#|----------------------------------------------------------------------|
G#|----------------------------------------------------------------------|
C#|0-0-0-0x-0-0-0-0--8-8-8-8x-8-8-8-8--5-5-5-5x-5-5-5-5--8-8-8-8x-8-8-8-8|

(0:40-0:55)
F#|------------------------------------------|
C#|------------------------------------------|
G#|------------------------------------------|
C#|0x-0~------0x-0~------5x-5~------8x-8~----|X2

(0:56-1:10)
F#|------------------------------------------|
C#|------------------------------------------|
G#|------------------------------------------|
C#|0--0-0-0x--0--0-0-0---5--5-5-5x--8--8-8-8-|X2

Breakdown (1:15-1:45)
F#|-----------------------------------------------------------|
C#|----------Palm-mute-this-sh*t------------------------------|
G#|-----------------------------------------------------------|
C#|000--00--00-000---00000000---000--00--00--000---000-8*-----|

F#|-----------------------------------------------------------|
C#|----------Don’t-palm-mute-this-sh*t------------------------|
G#|-----------------------------------------------------------|
C#|00~--00-00-0-0~---00000000---00~-00-00-0-0~-----000-8*-----|
^Repeat whole breakdown (return to palm mute) but end with 5* instead of 8*.

Caleb Shomo’s time to shine and plays keyboard…

BREAK (2:13-2:44)
F#|-------------------------------|
C#|-------------------------------|
G#|-------------------------------|
C#|0(x16)-10(x16)-5(x16)-8(x16)---|X2

(2:45-3:00)
F#|------------------------------------------|
C#|------------------------------------------|
G#|------------------------------------------|
C#|0x-0~------0x-0~------5x-5~------8x-8~----|X2

Little Techno Part (3:01)
This part is correct but very hard to distinguish because the bass line doesn’t go fully
with the techno part. It’s very faint in the background but you can hear it.
Listen carefully at this part, preferably with headphones and increase the bass in your equalizer.

(3:01-3:16) (10's not 1's and 0's)
F#|-------------------------------------------|
C#|-------------------------------------------|
G#|-------------------------------------------|
C#|0-0-0-555-0-0-5555-8-8-8-8-10-10-10101010--|X2

Outro
(3:30-3:42)
F#|------------------------------------------|
C#|------------------------------------------|
G#|------------------------------------------|
C#|0--0--0~--0--0--0~--0--0--0~--0--0-0-0-0~~|
"            
Submit corrections

comments powered by Disqus
↑ Back to top | Attack Attack Bass for Dr Shavargo. Lyrics for acoustic guitar and electric guitar. Tablatures and chords are parodies/interpretations of the original songs. You may use it for private study, scholarship, research or language learning purposes only