» » »

Attack Attack, Dr Shavargo Bass tabs (ver.1)

Artists:  A B C D E F G H I J K L M N O P Q R S T U V W X Y Z # 

Dr Shavargo Bass tabs (ver.1)

Attack Attack Tabs
 Rating:
4/5 (4 votes)
Dr Shavargo lessons Tabs too difficult? Try these video lessons and learn fast
                "(Part3)
Dr. Shavargo Pt.3
Attack Attack!
Someday Came Suddenly

Close as I could get it for my first tab.

F#|------------------------------------------------------------|
C#|------------------------------------------------------------|
G#|INTRO---------------------------------------1111111133333333|
C#|----------------------------0000000000000000----------------|X2

F#|----------------------------------------------------------------------|
C#|----------------------------------------------------------------------|
G#|------------------3-3-3-3--3-3-3-3--1-1-1-1--1-1-1-1--3-3-3-3--3-3-3-3|
C#|0-0-0-0--0-0-0-0------------------------------------------------------|

F#|------------------------------------------|
C#|------------------------------------------|
G#|---------------------1-11111111-3-33333333|
C#|0-00000000-0-0000000----------------------|X2

F#|------------------------------------------|
C#|------------------------------------------|
G#|----------------------1--1-1-1---3--3-3-3-|
C#|0--0-0-0---0--0-0-0-----------------------|X2

F#|------------------------------------------------------------------|
C#|------------------------------------------------------------------|
G#|------------------------------------------------------------------|
C#|0~~~~~~~~~~000--00--00--00---00000000---000--00--00--00---00000000|

F#|----------------------------------------------------|
C#|----------------------------------------------------|
G#|----------------------------------------------------|
C#|00~~~~0-0-0-0-00~~~~0000000--00~~~~0-0-0-000000~~~~0|

F#|--------------------------------|
C#|--------------------------------|
G#|--------------------------------|
C#|0-0-0-0-00000--00-00-00--0000000|

F#|--------------------------|
C#|--------------------------|
G#|--------------------------|
C#|00~~~~~0-0-0-00~~~~0000~~~|X2

BREAK

F#|--------------------|
C#|--------------------|
G#|------3x16-0x16-1x16|
C#|0x16----------------|X2

F#|------------------------------------------------------|
C#|------------------------------------------------------|
G#|----------------------------1-11-1-1-1-1--3-33-3-3-3-3|
C#|0-00-0-0-0-0--0-00-0-0-0-0----------------------------|

F#|-------------------------------------------------------------------------|
C#|-------------------------------------------------------------------------|
G#|----------------1-1-1-1-3-3-3-3------------------1-1-1-1-3-3-3-3-3333-3--|
C#|0-0-0-0-0-0-0-0-----------------0-0-0-0-0-0-0-0--------------------------|

BREAK

F#|------------------------------------------------|
C#|------------------------------------------------|
G#|------------------------------------------------|
C#|0-0-0-0--000-0-0-0-0--000-0-0-0-0--000-0~~~~~~~~|
"            
Submit corrections

comments powered by Disqus
↑ Back to top | Attack Attack Bass for Dr Shavargo. Lyrics for acoustic guitar and electric guitar. Tablatures and chords are parodies/interpretations of the original songs. You may use it for private study, scholarship, research or language learning purposes only