» » »

A Skylit Drive, Wires And The Concept Of Breathing Tabs (ver.2)

Artists:  A B C D E F G H I J K L M N O P Q R S T U V W X Y Z # 

Wires And The Concept Of Breathing Tabs (ver.2)

A Skylit Drive Tabs
 Rating:
4/5 (4 votes)
Wires And The Concept Of Breathing lessons Tabs too difficult? Try these video lessons and learn fast
1
                taena 
im sure 100% tama yan hahahaha

add nyo aq

okei ba?!!!!
hahahah
==========================================================================
==========================================================================


intro
guitar-1  guitar-2
|-------|--------------------------------|
|-------|--------------------------------|
|-------|-5-5----------------------------|
|-1010--|-7-7----------------------------|
|-8-8---|-8-8----------------------------|
|-8-8---|-8-8----------------------------|

guitar-1 (Won't you scream my name)
|------------------------------------------------------|
|------------------------------------------------------|
|------------------1010101010101010-12121212--10101010-|
|-0000000000000000-x-x-x-x-x-x-x-x---x-x-x-x--x-x-x-x--|
|-0000000000000000-8-8-8-8-8-8-8-8--10101010--8-8-8-8--|
|-0000000000000000-------------------------------------|

guitar-2
|------------------------------------------------------|
|------------------------------------------------------|
|------------------7-7-7-7-7-7-7-7--9-9-9-9--7-7-7-7---|
|-0000000000000000-x-x-x-x-x-x-x-x--x-x-x-x--x-x-x-x---|
|-0000000000000000-5-5-5-5-5-5-5-5--7-7-7-7--5-5-5-5---|
|-0000000000000000-------------------------------------|

both guitars (For the first time, For the last time)
|------------------------------------------------------|
|------------------------------------------------------|
|------------------------------------------------------|
|-8888888888888888888888888888888888-------------------|
|-8888888888888888888888888888888888-------------------|
|-8888888888888888888888888888888888-------------------|

 guitar-1 (As I lay down my life before you... )
|------------------------------------------------------|
|------------------------------------------------------|
|------------------------------------------------------|
|-8~-----8~--------------------------------------------|
|-8~-----8~--------------------------------------------|
|-8~-----8~--------------------------------------------|


verse guitar-1 (The hiding place where.........
|------------------------------------------------------|
|------------------------------------------------------|
|---------------------9999-10101010--------------------|
|-0--00--0--00---8-88-xxxx-x-x-x-x--101010101010-------|
|-0--00--0--00---8-88-7777-8-8-8-8--101010101010-------|
|-0--00--0--00---8-88---------------101010101010-------|

guitar-2
|------------------------------------------------------|
|-0--00--0--00---8-88---101010101010-------------------|
|-0--00--0--00---8-88---101010101010-------------------|
|-0--00--0--00---8-88---101010101010-------------------|


chorus
guitar-1   (You sent me out in the right field)
|------------------------------------------------------|
|------------------------------------------------------|
|------------------------------------------------------|
|-00000000--88888888-10101010101010101010101010101010--|
|-00000000--88888888-10101010101010101010101010101010--|
|-00000000--88888888-10101010101010101010101010101010--|


guitar-2 tappings ung mga #(3)yan naka plat cla bsta kau na bhala
|------------------------------------------------------|
|-10-(3)--------------10\13-(6)--10-(6)----------------|
|------10-(3)--------------------------10-(3)----------|3x
|-----------(3)-10\12------------------------10-(3)----|
|------------------------------------------------------|
|------------------------------------------------------|

|------------------------------------------------------|
|-10-(3)-------------10-(6)-13-(6)-13-(6)-13-(6)-13-(6)|
|------10-(3)------------------------------------------|1x
|-----------(3)-10\12----------------------------------|
|------------------------------------------------------|
|------------------------------------------------------|

|------------------------------------------------------|
|-10-(3)--------------10\13-(6)--10-(6)----------------|
|------10-(3)--------------------------10-(3)----------|3x
|-----------(3)-10\12------------------------10-(3)----|
|------------------------------------------------------|
|------------------------------------------------------|

|------------------------------------------------------|
|-10-(3)------------(6)-10\13~~~~~---------------------|
|------10-(3)------------------------------------------|1x
|-----------(3)-10\12----------------------------------|
|------------------------------------------------------|
|------------------------------------------------------|


guitar-1       guitar-2  (hold your breath)
|-------------|--------------------------------------------------|
|--------(2x)-|--------------------------------------------------|
|-------------|--------10101010-9999--------1010-99--10101010----|
|-8-0-10-8----|-8-0-10-x-x-x-x--xxxx--8-0-10-xx--xx--x-x-x-x-----|
|-8-0-10-8----|-8-0-10-8-0-10---7777--8-0-10-88--77--8-8-8-8-----|
|-8-0-10-8----|-8-0-10----------------8-0-10---------------------|


guitar-1  (I hold it in my hand for you.)
|----------------------------------------------------------------|
|----------------------------------------------------------------|
|----------------------------------------------------------------|
|-8888888888888888--1010101010101010101010101010101010-----------|
|-8888888888888888--1010101010101010101010101010101010-----------|
|-8888888888888888--1010101010101010101010101010101010-----------|

guitar-2
|----------------------------------------------------------------|
|----------------------------------------------------------------|
|-14------17-----------------------------------------------------|
|--x-(16)--x-(16)------------------------------------------------|
|-12------15-----------------------------------------------------|
|----------------------------------------------------------------|

|----------------------------------------------------------------|
|----------------------------------------------------------------|
|----------------------------------------------------------------|
|-8--0--10~------------------------------------------------------|
|-8--0--10~------------------------------------------------------|
|-8--0--10~------------------------------------------------------|

back to 
intro
verse
chorus then.....


outro
both guitars (Let go of the wires.........)
|---------------------------------------------------|
|---------------------------------------------------|
|---------------------------------------------------|
|-0000000--000--000---------------------------------|
|-0000000--000--000---------------------------------|
|-0000000--000--000---------------------------------|

last chords..........
|---------------------------------------------------|
|---------------------------------------------------|
|---------------------------------------------------|
|-0000000-------------------------------------------|
|-0000000-------------------------------------------|
|-0000000-------------------------------------------|


comment nmn dyan
hahaha 100% tama yan!!!!!
            
Submit corrections

comments powered by Disqus
↑ Back to top | A Skylit Drive Tabs for Wires And The Concept Of Breathing. Lyrics for acoustic guitar and electric guitar. 1 Tablatures and chords are parodies/interpretations of the original songs. You may use it for private study, scholarship, research or language learning purposes only