» » »

A Skylit Drive, Wires And The Concept Of Breathing Bass tabs (ver.1)

Artists:  A B C D E F G H I J K L M N O P Q R S T U V W X Y Z # 

Wires And The Concept Of Breathing Bass tabs (ver.1)

A Skylit Drive Tabs
 Rating:
4/5 (4 votes)
Wires And The Concept Of Breathing lessons Tabs too difficult? Try these video lessons and learn fast
1
                ++++++++++++++++++++++++++++++++++++++++++++++++++++++
| A Skylit Drive- Wires And The Concept Of Breathing |
++++++++++++++++++++++++++++++++++++++++++++++++++++++


"As I lay down my life before you..."

Tuning: Drop D (DADG)


Intro
"Wont you scream my name?"
1.
G|---------------------------------------------------------------------------------|
D|--------------------------0-0000000-2222333--------------------------------------|
A|-------------------------------------------1-1111111-111111x--1-1111111-11111111-|
D|-0x-0x---0-0000000-00000x--------------------------------------------------------|

"As I lay down..."
2.
G|---------------------|
D|---------------------|
A|---------------------|
D|-0~--------0~--------|

Verse
"The hiding place..."
3.
G|-------------------------------------------|
D|-----------0~------------------------------|
A|---------------------1~--------1~----3~----|
D|-0~----------------------------------------|

"You sent me out..."
4.
G|-------------------------------------------------------------------------|
D|-00000000----------------------------00000000----------------------------|
A|----------11111111-33333333-33333333----------11111111-33333333-33333333-|--x2
D|-------------------------------------------------------------------------|

Chorus
"Hold my breath..."
5.
G|----------------------------------------------------------------------------|
D|----------------------------------------------------------------------------|
A|-1~------3~--1~-11-1~------3~--1~-11----------------------33333333-33333333-|
D|-----0~----------------0~---------------00000000-00000000-------------------|

6.
G|------------------|
D|------------------|
A|-1~------1~-------|
D|-----0~-----------|

Outro
"Wont you scream my name?"
7.
G|---------------------------------------------------------------------------------|
D|--------------------------0-0000000-2222333--------------------------------------|
A|-------------------------------------------1-1111111-111111x--1-1111111-11111111-|
D|-0x-0x---0-0000000-00000x--------------------------------------------------------|

"And I regret the moments..."
8.
G|---------------------|
D|---------------------|
A|---------------------|
D|-0~--------0~--------|

Verse
"Searching for my plans..."
9.
G|-------------------------------------------|
D|-----------0~------------------------------|
A|---------------------1~--------1~----3~----|
D|-0~----------------------------------------|

"You sent me out..."
10.
G|-------------------------------------------------------------------------|
D|-00000000----------------------------00000000----------------------------|
A|----------11111111-33333333-33333333----------11111111-33333333-33333333-|--x2
D|-------------------------------------------------------------------------|

Outro
"Let go of the wires!"
11.
G|-------------------------------------------------------------|
D|-------------------------------------------------------------|
A|-------------------------------------------------------------|
D|-000000000x----000x--00000x----000000000x----000x--00000x----|

"Let go of the wires!"
12.
G|-------------------------------------------------------------|
D|-------------------------------------------------------------|
A|-------------------------------------------------------------|
D|-000000000x----000x--00000x----000000000x----000x--00000x----|

13.
G|----------------------------|
D|----------------------------|
A|----------------------------|
D|-000000000~-----------------|


Lyrics:


Won't you scream my name?
For the first time 
For the last time 

As I lay down my life before you
The hiding place where I sought out your eyes
Screaming outwards to shoot me back in time

You sent me out in the right field
Spilled my words and disguise
We're starting a rise
Now it's so true I can't go on without you by my side
Every night we die

Hold my breath just to see your ghost
I hold it in my hand for you

And I regret the moments I gave you
Searching for my plans to devour you
I finally found out the truth

Let go of the wires!
Let go of the wires!



+++++++++++++++++++++++++++++++++
| RaiLeff                       |
+++++++++++++++++++++++++++++++++
            
Submit corrections

comments powered by Disqus
↑ Back to top | A Skylit Drive Bass for Wires And The Concept Of Breathing. Lyrics for acoustic guitar and electric guitar. 1 Tablatures and chords are parodies/interpretations of the original songs. You may use it for private study, scholarship, research or language learning purposes only