>
 >
Drown The City

Drown The City Guitar Tabs

A Skylit Drive - Drown The City chords, tabs, tablatures, lyrics

Guitar lessons | Add/correct | Request | Top 50 tabs Artists:  A B C D E F G H I J K L M N O P Q R S T U V W X Y Z 0-9

Drown The City Guitar Tabs – A Skylit Drive

CD, Sheet music, Poster

Do you like Drown The City? Share with your friends now
Bass TabsTabsTabs v2
----------------------------------------------------------------------------
----------------------------------------------------------------------------

Tuning:Drop D

im pretty sure this is 98% correct. just spend a little time listening to the rythem of
first guitar it can be tricky at times. i spent alot of time listening to this song,
i have listened to it 64 times (according to my itunes) ive added the time to hopefully clear 
any confusion.

updated- g2 intro(made it clearer)
g2 chorus

:00-:15
g1
e--------------------------------------------------------------|
b-------------------------------------------Strum---------hold-|
g-10-10-------10-10-9-14-14-------12-12-9---10-9-14-12-10------|
d-x--x--pause-x--x--x--x--x-pause--x--x-x---x--x--x--x--x-0~---|
a-8--8--------8--8--7-12-12-------10-10-7---8--7-12-10--8-0~---|
d---------------------------------------------------------0~---|
g2
e--------------------------------------------------------------|
b-----------------------play-this-section-twice----------------|
g----------------|---------3-3-3-3-------3-3-3/5-5-5-|---------|
d----------------|---------3-3-3-3-------3-3-3/5-5-5-|---------|
a--0-0-0-0-pause-|-000-000-1-1-1-1 pause-1-1-1/3-3-3-|---------|
d--0-0-0-0-------|-000-000---------------------------|---------|
 pm- - - -         --- ---
g1 :16-30
e------8p6------------------------------------|
b---------5~----------------------------------|
g---------------------------------------------|
d-0~------------------------------------------|
a-0~-----------0000-0~-0~-~-------------------|
d-0~-----------0000~0~-0~---------------------|
             pm----
g2
e-------------------------------------------------------|
b-------------------------------------------------------|
g-------------------------------------------------------|
d-0~----------------------------------------------------|
a-0~----------0000-0~-0~--------------------------------|
d-0~----------0000-0~-0~--------------------------------|
            pm----
both guitars :30-:36
e--------------------------------------------------------|
b--------------------------------------------------------|
g--------------------------------------------------------|
d----------8~---------8-10~---x2-------------------------|
a--000-000-8~-000-000-8-10~------------------------------|
d--000-000-8~-000-000-8-10~------------------------------|
 pm--- ---    --- ---
g1 :37-:44
e---listen-close----------------------------------------|
b--follow-rythem----------------------------------------|
g--7-9-10-12--12-10-9-----------------------------------|
d--x-x-x---x--x--x--x-----------------------------------|
a--5-7-8--10--10-8--7-----------------------------------|
d-------------------------------------------------------|
g2
e-------------------------------------------------------|
b-------------------------------------------------------|
g----strum----------------------------------------------|
d--8----10----------------------------------------------|
a--8-x4-10-x4-------------------------------------------|
d--8----10----------------------------------------------|
both guitars :45-:50
e--------------------------------------------------------|
b--------------------------------------------------------|
g--------------------------------------------------------|
d----------8~---------8-10~---x2-------------------------|
a--000-000-8~-000-000-8-10~------------------------------|
d--000-000-8~-000-000-8-10~------------------------------|
 pm--- ---    --- ---

g1 :50-56
e-------------------------------------------------------|
b-----follow rythem-------------------------------------|
g--7-9-10-12-14--10/12----------------------------------|
d--x-x-x--x---x--x--x-----------------------------------|
a--5~7-8--10-12--8-/10----------------------------------|
d-------------------------------------------------------|
g2
e-------------------------------------------------------|
b-------------------------------------------------------|
g----strum----------------------------------------------|
d--8----10----------------------------------------------|
a--8-x4-10-x4-------------------------------------------|
d--8----10----------------------------------------------|

g2 only :57-:58
e--------------------------------------|
b--------------------------------------|
g--10-7-9-7-5-7-9-7--------------------|
d--------------------------------------|
a--------------------------------------|
d--------------------------------------|

chorus
g1 :59-1:24
e-----------------------------|-follow rythem----|--------------|
b------follow rythem----------|--first ending----|second ending-|
g-9-10-12-14-9-10-12/14\12-10-|-5-14-12-10-9-5-7-|--5--7--------|
d-x-x--x---x-x-x--x--x--x--x--|-x-x---x-x--x-x-x-|--x--x--------|
a-7-8--10-12-7-8--10/12\10-8--|-3-12-10-8--7-3-5-|--3--5--------|
d-----------------------------|-----------strum^-|--^strum^-----|
g2
e--------------------------------------------------------|
b--------------------------------------------------------|
g-----------------------10-7-9-7-5-7-9-7-----------------|
d--0---8----3----10-----------------------X2-------------|
a--0x8-8-x8-3-x8-10-x8-----------------------------------|
d--0---8----3----10--------------------------------------|

g1 1:25-1:37
e--------------------------------------------------------|
b--------------------------------------------------------|
g-------------14/12--12/10--9/10-------------------------|
d--------------x--x---x-x---x--x---x2--------------------|
a--000~-000~--12/10--10/8---7/-8-------------------------|
d--000~-000~---------------------------------------------|
 pm---  ----
g2
e--------------------------------------------------------|
b--------------------------------------------------------|
g-------------10/9--9/7--5/7-----------------------------|
d-------------x--x--x-x--x-x---x2------------------------|
a--000~-000~--8-/7--7/5--3/5-----------------------------|
d--000~-000~---------------------------------------------|
 pm---  ---
g1 1:38-1:44
e-------------------------------------------------------|
b---listen-to-the-rythem--------------------------------|
g--7-9-10-12--------------------------------------------|
d--x-x-x--x---------------------------------------------|
a--5-7-8--10--------------------------------------------|
d-------------------------------------------------------|
g2
e-------------------------------------------------------|
b-------------------------------------------------------|
g--strum------------------------------------------------|
d-8----10-----------------------------------------------|
a-8-x4-10-x4--------------------------------------------|
d-8----10-----------------------------------------------|
both guitars 1:45-1:51
e-------------------------------------------------------|
b-------------------------------------------------------|
g-------------------------------------------------------|
d----------8~---------8-10~---x2------------------------|
a--000-000-8~-000-000-8-10~-----------------------------|
d--000-000-8~-000-000-8-10~-----------------------------|
 pm--- ---    --- ---
g1 1:52-1:58
e-------------------------------------------------------|
b-----follow rythem-------------------------------------|
g--7-9-10-12-14--10/12----------------------------------|
d--x-x-x--x---x--x--x-----------------------------------|
a--5~7-8--10-12--8-/10----------------------------------|
d-------------------------------------------------------|
g2
e-------------------------------------------------------|
b-------------------------------------------------------|
g----strum----------------------------------------------|
d--8----10----------------------------------------------|
a--8-x4-10-x4-------------------------------------------|
d--8----10----------------------------------------------|
g2 only 1:59-2:00
e--------------------------------------|
b--------------------------------------|
g--10-7-9-7-5-7-9-7--------------------|
d--------------------------------------|
a--------------------------------------|
d--------------------------------------|
chorus
g1 2:01-2:25
e-----------------------------|-follow rythem----|--------------|
b------follow rythem----------|--first ending----|second ending-|
g-9-10-12-14-9-10-12/14\12-10-|-5-14-12-10-9-5-7-|--5--7--------|
d-x-x--x---x-x-x--x--x--x--x--|-x-x---x-x--x-x-x-|--x--x--------|
a-7-8--10-12-7-8--10/12\10-8--|-3-12-10-8--7-3-5-|--3--5--------|
d-----------------------------|-----------strum^-|--^strum^-----|
g2
e--------------------------------------------------------|
b--------------------------------------------------------|
g-----------------------10-7-9-7-5-7-9-7-----------------|
d--0---8----3----10-----------------------X2-------------|
a--0x8-8-x8-3-x8-10-x8-----------------------------------|
d--0---8----3----10--------------------------------------|
g1 2:26-2:39
e--------------------------------------------------------|
b--------------------------------------------------------|
g-------------14/12--12/10--9/10-------------------------|
d--------------x--x---x-x---x--x---x2--------------------|
a--000~-000~--12/10--10/8---7/-8-------------------------|
d--000~-000~---------------------------------------------|
 pm---  ---
g2
e--------------------------------------------------------|
b--------------------------------------------------------|
g-------------10/9--9/7--5/7-----------------------------|
d-------------x--x--x-x--x-x---x2------------------------|
a--000~-000~--8-/7--7/5--3/5-----------------------------|
d--000~-000~---------------------------------------------|
 pm---  ---
g1 2:40-2:46
e--------------------------------------------------------|
b--------------------------------------------------------|
g---------------------14/12--12/10--9/10-----------------|
d----------8~----------x--x---x-x---x--x-----------------|
a--000-000-x--000-000-12/10--10/8---7/-8-----------------|
d--000-000-5~-000-000------------------------------------|
 pm--- ---    --- ---
g2
e--------------------------------------------------------|
b--------------------------------------------------------|
g---------------------10/9--9/7--5/7---------------------|
d----------8~---------x--x--x-x--x-x---------------------|
a--000-000-x--000-000-8-/7--7/5--3/5---------------------|
d--000-000-5~-000-000------------------------------------|
 pm--- ---    --- ---
g1 2:47-2:56
e--------------------------------------------------------|
b--------------------------------------------------------|
g----------------------14/12--12/10--9/10----------------|
d----------8~----------x--x---x-x---x--x-----------------|
a--000-000-x---000-000-12/10--10/8---7/8-----------------|
d--000-000-10~-000-000-----------------------------------|
 pm--- ---     --- ---
g2
e--------------------------------------------------------|
b--------------------------------------------------------|
g----------------------10/9--9/7--5/7--------------------|
d----------8~----------x--x--x-x--x-x--------------------|
a--000-000-x---000-000-8-/7--7/5--3/5--------------------|
d--000-000-10~-000-000-----------------------------------|
 pm--- ---     --- ---
g1 2:57-3:01
e------------------------------------------------|
b---listen-to-the-rythem-------------------------|
g--7-9-10-12-------------------------------------|
d--x-x-x--x--------------------------------------|
a--5-7-8--10-------------------------------------|
d------------------------------------------------|
g2
e------------------------------------------------|
b------------------------------------------------|
g--strum-----------------------------------------|
d-8----10----------------------------------------|
a-8-x4-10-x4-------------------------------------|
d-8----10----------------------------------------|
g2 only 3:02-3:03
e--------------------------------------|
b--------------------------------------|
g--10-7-9-7-5-7-9-7--------------------|
d--------------------------------------|
a--------------------------------------|
d--------------------------------------|
chorus
g1 3:04-3:27
e-----------------------------|-follow rythem----|--------------|
b------follow rythem----------|--first ending----|second ending-|
g-9-10-12-14-9-10-12/14\12-10-|-5-14-12-10-9-5-7-|--5--7--------|
d-x-x--x---x-x-x--x--x--x--x--|-x-x---x-x--x-x-x-|--x--x--------|
a-7-8--10-12-7-8--10/12\10-8--|-3-12-10-8--7-3-5-|--3--5--------|
d-----------------------------|-----------strum^-|--^strum^-----|
g2
e----------------------------------------------------------|
b----------------------------------------------------------|
g-----------------------10-7-9-7-5-7-9-7-------------------|
d--0---8----3----10-----------------------X2---------------|
a--0x8-8-x8-3-x8-10-x8-------------------------------------|
d--0---8----3----10----------------------------------------|

3:28-3:29
Pause...... Now your screaming at the top of your lungs!

g1 3:30-3:52
e------------------------------------------------------------------------|
b------------------------------------------------------------------------|
g--------14-12-10-9-5-14/12/10/9/5--5-7--9-10-12-14-9-10-12/14\12-5-7----|
d---------x--x--x-x-x-x---x--x-x-x--x-x--x-x---x--x-x--x--x--x--x-x-x----|
a-0000---12-10-8--7-3-12/10/8-/7/3--3-5--7-8--10-12-7-8--10/12\10-3-5----|
d-0000------------------------------^-^strum----------------------^-^----|
pm----
g2
e---------------------------------------------------------------------------|
b---------------------------------------------------------------------------|
g---------------------10-7-9-7-4-7-9-7---------------------10-7-9-7-5-7-9-7-|
d-------8----3----10---------------------0----8----3----10------------------|
a-0000--8-x4-3-x4-10-x4------------------0-x4-8-x4-3-x4-10-x4---------------|
d-0000--8----3----10---------------------0----8----3----10------------------|
pm----
both guitars 3:53-4:04
e-------------------------------------------------|
b------66~------66~-----66~-----------------------|
g------99~------99~-----99~-----------------------|
d---------------------------8-----10--------x2----|
a--00~------00~-----00~-----8-x4--10-x4-----------|
d--00~------00~-----00~-----8-----10--------------|
both guitars 4:05-4:19
e-------------------------------------------------------|
b--------6~-------6~-------6~---------------------------|
g--------9~-------9~-------9~---------------------------|
d-----------------------------8----10------x2-----------|
a--00-00----00-00----00-00----8-x4-10-x4----------------|
d--00-00----00-00----00-00----8----10-------------------|
pm -- --    -- --    -- --
both guitars  4:20-4:21
e-------------------------------------------------------|
b-------------------------------------------------------|
g-------------------------------------------------------|
d--8----10--------x2------------------------------------|
a--8-x4-10-x4-------------------------------------------|
d--8----10----------------------------------------------|
both guitars 4:22
e-------------------------------------------------------|
b-------------------------------------------------------|
g-----hold-till-fade-out--------------------------------|
d-0~----------------------------------------------------|
a-0~----------------------------------------------------|
d-0~----------------------------------------------------|





Comments


Popular A Skylit Drive tabs & chords
All Star Diaries Bass Tabs
Ability To Create A War Tabs
Acording To Columbus Intro Tabs
All Star Diaries Tabs
All-star Diaries Tabs
Ex Marks The Spot Tabs
Fuck The System Tabs
Past The Love The Memories Tabs
See You Around Tabs
Those Cannons Could Sink A Ship 1 Tabs


Song lyrics



↑ Back to top | Tablatures and chords are parodies/interpretations of the original songs. You may use it for private study, scholarship, research or language learning purposes only
© 2014 AZChords.com Contact us | Privacy policy | DMCA | Add/correct tabs | Request tabs | Top 50 tabs