» » »

A Skylit Drive, Drown The City Tabs (ver.2)

Artists:  A B C D E F G H I J K L M N O P Q R S T U V W X Y Z # 

Drown The City Tabs (ver.2)

A Skylit Drive Tabs
 Rating:
4.5/5 (8 votes)
Drown The City lessons Tabs too difficult? Try these video lessons and learn fast
1
                Drown the city by A skylit drive.
An awesome song, and this is my first tab. I have to give credit to my friend  Mikey 
for helping me figure some of it out. Contact me if you have questions.


Guitar 1 (lead)

(Lie, to me. I wont lie, tape your mouth shut..)

e|---------------------------------------------------------------------------|
B|---------------------------------------------------------------------------|
G|---10-10-10---10-10-----10-10-------14-14-14----14-14-------12-12----------|
D|---x--x--x----x--x---0---x--x---0----x--x--x-----x--x---0----x--x--0-------|
A|---8--8--8----8--8---0---8--8---0---12-12-12----12-12---0---10-10--0-------|
D|---------------------0----------0-----------------------0----------0-------|
Guitar 2 (rhythm)      .          .                       .          .

e|---------------------------------------------------------------------------|
B|---------------------------------------------------------------------------|
G|--10-10-10---10-10------10-10---10-10-10----10-10------12--12--------------|
D|---0--0--0----0--0---0---0--0----8--8--8-----8--8---0--10--10--------------|
A|---0--0--0----0--0---0---0--0----8--8--8-----8--8---0--10--10--------------|
D|---0--0--0----0--0---0---0--0----8--8--8-----8--8---0--10--10--------------|
                       .                              .
Guitar 1

(Lie, to me. I wont lie, swallow your tongue.)

e|---------------------------------------------------------------------------|
B|---------------------------------------------------------------------------|
G|--10-------9--------14-------12--------------------------------------------|
D|--x--(x12)-x--(x4)---x-(x8)---x--(x8)--------------------------------------|
A|--8--------7--------12-------10--------------------------------------------|
D|---------------------------------------------------------------------------|

e|---------------------------------------------------------------------------|
B|---------------------------------------------------------------------------|
G|--10-10-10---10-10------10-10---10-10-10----10-10------12--12--------------|
D|---0--0--0----0--0---0---0--0----8--8--8-----8--8---0--10--10--------------|
A|---0--0--0----0--0---0---0--0----8--8--8-----8--8---0--10--10--------------|
D|---0--0--0----0--0---0---0--0----8--8--8-----8--8---0--10--10--------------|
Guitar 1 and 2

(Forget it all I have you buried in my walls)
(Ill use your skin to cover up my scares)
e|----------------------------------------------------------------------------------|
B|----------------------------------------------------------------------------------|
G|--------------------------------------------------------------(My-scars)----------|
D|-0-----------------------------0-------------------------------0-0--0-0-----------|
A|-0-----------------------------0-------------------------------0-0--0-0-----------|
D|-0-----------------------------0-------------------------------0-0--0-0-----------|
                                                                 .    .
Guitar 1 and 2

(Place you lay, bloody hall of fame)

e|---------------------------------------------------------------------------|
B|---------------------------------------------------------------------------|
G|---------------------------------------------------------------------------|
D|--0-0-0--0--0----8--8--8----0-0-0--0--0----8-8---10--10--------(X2)--------|
A|--0-0-0--0--0----8--8--8----0-0-0--0--0----8-8---10--10--------------------|
D|--0-0-0--0--0----8--8--8----0-0-0--0--0----8-8---10--10--------------------|
    . . .  .  .               . . .  .  .

Guitar 1 (This is a weird strumming sliding transition. Im not sure what comes at the 
Just listen to the song and you'll get it.)

(The ropes that tie your hands, right by your side)

e|-------------------------------------------------------------------------------------|
B|-------------------------------------------------------------------------------------|
G|7-7-7-7--7/9-9-9-9/10-10-10-10/12-12-12-12/-14-14-14-14-12/12-12-12/14-14-14-14------|
D|x-x-x-x--x/x-x-x-x/x--x--x--x/-x--x--x---x/--x--x--x--x--x/-x--x--x/-x--x--x--x------|
A|5-5-5-5--5/7-7-7-7/8--8--8--8/-10-10-10-10/-12-12-12-12/10/10-10-10/12-12-12-12------|
D|-------------------------------------------------------------------------------------|
Guitar 2
e|---------------------------------------------------------------------------|
B|---------------------------------------------------------------------------|
G|---------------------------------------------------------------------------|
D|---8-------------------------------10--------------------------------------|
A|---8--(x16-I-think)----------------10---(x16)------------------------------|
D|---8-------------------------------10--------------------------------------|
                 All this (x2)

Cool little fill.(Might be some hammers and pull offs on this, but i just pick it.)

e|---------------------------------------------------------------------------|
B|---------------------------------------------------------------------------|
G|----10--7--9--7--5--7--9---------------------------------------------------|
D|---------------------------------------------------------------------------|
A|---------------------------------------------------------------------------|
D|---------------------------------------------------------------------------|


Chorus*

(So now you're screaming at the top of your lungs, hoping for someone to come, hoping 
bring a gun. To inflict all the pain, i caused upon you, I caused upon you.)

Try to figure out the strumming by yourself.

Guitar 1
e|-------------------(cut-short)----------------------------------------------------|
B|-------------10---------5---------------------------------------------------------|
G|-10----------8----------3---14\12-12\10-10/12-----5-----10--7--9--7--5--7--9------|
D|--x----------8----------3----x--x--x--x--x--x-----5-------------------------------|(x2)
A|--8----------8----------3---12\10-10\8---8/10-----3-------------------------------|
D|----------------------------------------------------------------------------------|

Guitar 2

e|-------------------------------------------------------------------------------|
B|-------------------------------------------------------------------------------|
G|-------------------------------------------------------------------------------|
D|-0-----------8----------3-------------------------5----------------------------|(x2)
A|-0-----------8----------3-------------------------5----------------------------|
E|-0-----------8----------3-------------------------3----------------------------|

Guitar 1

(I wont die)

e|-------------------------------------------------------------------------------|
B|-------------------------------------------------------------------------------|
G|-------------------10/9--9/7--7/5--5/7-----------------------------------------|
D|-0-0-----0-0-------x-x---x-x--x-x--x-x-----------------------------------------|x2
A|-0-0-----0-0-------8/7---7/5--5/3--3/5-----------------------------------------|
E|-0-0-----0-0-------------------------------------------------------------------|
   . .     . .

Guitar 2

e|---------------------------------------------------------------------------|
B|---------------------------------------------------------------------------|
G|-------------------14/12---12/10-10/9-9/10---------------------------------|
D|-0-0-----0-0--------x--x----x-x--x-x--x-x----------------------------------|x2
A|-0-0-----0-0-------12/10---10/8--8/7--7/8----------------------------------|
E|-0-0-----0-0---------------------------------------------------------------|
   . .     . .

Both guitars

(the only problem with the story carved on your chest..)

e|---------------------------------------------------------------------------|
B|---------------------------------------------------------------------------|
G|---10-------12-------------------------------------------------------------|
D|----x-x16----x-x16---------------------------------------------------------|
A|----8-------10-------------------------------------------------------------|
E|---------------------------------------------------------------------------|

Guitar 1 and 2

(Place you lay, bloody hall of fame)

e|---------------------------------------------------------------------------|
B|---------------------------------------------------------------------------|
G|---------------------------------------------------------------------------|
D|--0-0-0--0--0----8--8--8----0-0-0--0--0----8-8---10--10--------(X2)--------|
A|--0-0-0--0--0----8--8--8----0-0-0--0--0----8-8---10--10--------------------|
D|--0-0-0--0--0----8--8--8----0-0-0--0--0----8-8---10--10--------------------|
    . . .  .  .               . . .  .  .

Guitar 1

(The ropes that tie your hands, right by your side)

e|-------------------------------------------------------------------------------------|
B|-------------------------------------------------------------------------------------|
G|7-7-7-7--7/9-9-9-9/10-10-10-10/12-12-12-12/-14-14-14-14-12/12-12-12/14-14-14-14------|
D|x-x-x-x--x/x-x-x-x/x--x--x--x/-x--x--x---x/--x--x--x--x--x/-x--x--x/-x--x--x--x------|
A|5-5-5-5--5/7-7-7-7/8--8--8--8/-10-10-10-10/-12-12-12-12/10/10-10-10/12-12-12-12------|
D|-------------------------------------------------------------------------------------|
Guitar 2
e|---------------------------------------------------------------------------|
B|---------------------------------------------------------------------------|
G|---------------------------------------------------------------------------|
D|---8-------------------------------10--------------------------------------|
A|---8--(x16-I-think)----------------10---(x16)------------------------------|
D|---8-------------------------------10--------------------------------------|
                 Only once that time.

Cool little fill.

e|---------------------------------------------------------------------------|
B|---------------------------------------------------------------------------|
G|----10--7--9--7--5--7--9---------------------------------------------------|
D|---------------------------------------------------------------------------|
A|---------------------------------------------------------------------------|
D|---------------------------------------------------------------------------|


Chorus*

(So now you're screaming at the top of your lungs, hoping for someone to come, hoping 
bring a gun. To inflict all the pain, i caused upon you, I caused upon you.)

Guitar 1
e|-------------------(cut-short)----------------------------------------------------|
B|-------------10---------5---------------------------------------------------------|
G|-10----------8----------3---14\12-12\10-10/12-----5-----10--7--9--7--5--7--9------|
D|--x----------8----------3----x--x--x--x--x--x-----5-------------------------------|(x2)
A|--8----------8----------3---12\10-10\8---8/10-----3-------------------------------|
D|----------------------------------------------------------------------------------|

Guitar 2

e|-------------------------------------------------------------------------------|
B|-------------------------------------------------------------------------------|
G|-------------------------------------------------------------------------------|
D|-0-----------8----------3-------------------------5----------------------------|(x2)
A|-0-----------8----------3-------------------------5----------------------------|
D|-0-----------8----------3-------------------------3----------------------------|


Guitar 1

(I wont die)

e|-------------------------------------------------------------------------------|
B|-------------------------------------------------------------------------------|
G|-------------------10/9--9/7--7/5--5/7-----------------------------------------|
D|-0-0-----0-0-------x-x---x-x--x-x--x-x-----------------------------------------|x2
A|-0-0-----0-0-------8/7---7/5--5/3--3/5-----------------------------------------|
D|-0-0-----0-0-------------------------------------------------------------------|
   . .     . .

Guitar 2

e|---------------------------------------------------------------------------|
B|---------------------------------------------------------------------------|
G|-------------------14/12---12/10-10/9-9/10---------------------------------|
D|-0-0-----0-0--------x--x----x-x--x-x--x-x----------------------------------|x2
A|-0-0-----0-0-------12/10---10/8--8/7--7/8----------------------------------|
D|-0-0-----0-0---------------------------------------------------------------|
   . .     . .


Guitar 1

(I wont die. I will lie)

e|-------------------------------------------------------------------------------|
B|-------------------------------------------------------------------------------|
G|-------------------10/9--9/7--7/5--5/7-----------------------------------------|
D|-0-0--8---0-0-------x-x---x-x--x-x--x-x----------------------------------------|x2
A|-0-0--x---0-0-------8/7---7/5--5/3--3/5----------------------------------------|
D|-0-0--5---0-0------------------------------------------------------------------|
   . .      . .

Guitar 2

e|---------------------------------------------------------------------------|
B|---------------------------------------------------------------------------|
G|--------------------14/12---12/10-10/9-9/10--------------------------------|
D|-0-0--10--0-0--------x--x----x-x--x-x--x-x---------------------------------|x2
A|-0-0--x---0-0-------12/10---10/8--8/7--7/8---------------------------------|
D|-0-0--8---0-0--------------------------------------------------------------|
   . .     . .

Guitar 1

(I wont die. I will lie)

e|-------------------------------------------------------------------------------|
B|-------------------------------------------------------------------------------|
G|-------------------10/9--9/7--7/5--5/7-----------------------------------------|
D|-0-0--8---0-0-------x-x---x-x--x-x--x-x----------------------------------------|x2
A|-0-0--x---0-0-------8/7---7/5--5/3--3/5----------------------------------------|
D|-0-0--10--0-0------------------------------------------------------------------|
   . .      . .

Guitar 2

e|---------------------------------------------------------------------------|
B|---------------------------------------------------------------------------|
G|--------------------14/12---12/10-10/9-9/10--------------------------------|
D|-0-0--14--0-0--------x--x----x-x--x-x--x-x---------------------------------|x2
A|-0-0--x---0-0-------12/10---10/8--8/7--7/8---------------------------------|
D|-0-0--12--0-0--------------------------------------------------------------|
   . .      . .

Both guitars

(the only problem with the story carved on your chest..)

e|---------------------------------------------------------------------------|
B|---------------------------------------------------------------------------|
G|---10-------12-------------------------------------------------------------|
D|----x-x16----x-x16---------------------------------------------------------|
A|----8-------10-------------------------------------------------------------|
D|---------------------------------------------------------------------------|

Cool little fill.

e|---------------------------------------------------------------------------|
B|---------------------------------------------------------------------------|
G|----10--7--9--7--5--7--9---------------------------------------------------|
D|---------------------------------------------------------------------------|
A|---------------------------------------------------------------------------|
D|---------------------------------------------------------------------------|


Then just the chorus again with a little mixed up lead part.

And the ending is


e|---------------------------------------------------------------------------|
B|---------------------6-6-6-------------------------------------------------|
G|---------------------9-9-9-------------------------------------------------|
D|--0-0-0----0-0-0---------------(x3)---8-8-8-----10-10-10-------------------|
A|--0-0-0----0-0-0----------------------8-8-8-----10-10-10-------------------|
D|--0-0-0----0-0-0----------------------8-8-8-----10-10-10-------------------|

That a few times and it just ends on
888  101010    888  101010  0
888  101010    888  101010  0
888  101010    888  101010  0

| /  slide up
| \  slide down
| h  hammer-on
| p  pull-off
| ~  vibrato
| +  harmonic
| x  Mute note
=================
            
Submit corrections

comments powered by Disqus
↑ Back to top | A Skylit Drive Tabs for Drown The City. Lyrics for acoustic guitar and electric guitar. 1 Tablatures and chords are parodies/interpretations of the original songs. You may use it for private study, scholarship, research or language learning purposes only