» » »

A Skylit Drive, A Reason For Broken Wings Tabs (ver.1)

Artists:  A B C D E F G H I J K L M N O P Q R S T U V W X Y Z # 

A Reason For Broken Wings Tabs (ver.1)

A Skylit Drive Tabs
Rating:
2/5 (3 votes)
Hard to play? Try these video lessons and learn fast.
                -------------------------------------------------------------------------------
                   A REASON FOR BROKEN WINGS – A Skylit Drive
-------------------------------------------------------------------------------

Tuning: Drop D

I know this tab isn't 100% perfect, but it sounds pretty damn close to me. 

Remember to check the track for timing, especially in the 'chorus outro' and the bridge sections.

Anyway, here it is... Enjoy!

Intro

e|---------------------------------------------------------------------------|
B|---------------------------------------------------------------------------|
G|---------5----------5----------3----------5--------------------------------|
D|---5--5--5----5--5--5----1--1--1----3--3--3--------------------------------|
A|---5--5--5----5--5--5----1--1--1----3--3--3--------------------------------|
D|---5--5-------5--5-------1--1--1----3--3--3--------------------------------| x2

Verse

Gtr 1
e|---------------------------------------------------------------------------|
B|---------------------------------------------------------------------------|
G|---------------------------------------------------------------------------|
D|---5-----------------------------------------------------------------------|
A|---5-----------------------------------------------------------------------|
D|---5-----------------------------------------------------------------------|

Gtr 2
e|---------------------------------------------------------------------------|
B|--------------------------------------------------8-----6------------------|
G|---7-0-5-0-7-0-5-0-7-0-5-0-7-8----7-0-5-0-7-0-5-0---0-0---0----------------|
D|---------------------------------------------------------------------------|
A|---------------------------------------------------------------------------|
D|---------------------------------------------------------------------------|

e|---------------------------------------------------------------------------|
B|---------------------------------------------------------------------------|
G|---------------------------------------------------------------------------|
D|---1-----------------------------------------------------------------------|
A|---1-----------------------------------------------------------------------|
D|---1-----------------------------------------------------------------------|

e|---------------------------------------------------------------------------|
B|---------------------------------------------------------------------------|
G|---3-0-2-0-3-0-2-0-3-0-2-0-3/5----3-0-2-0-3-0-2-0-3-0-2-0-3/5--------------|
D|---------------------------------------------------------------------------|
A|---------------------------------------------------------------------------|
D|---------------------------------------------------------------------------|

e|---------------------------------------------------------------------------|
B|---------------------------------------------------------------------------|
G|---------------------------------------------------------------------------|
D|---5-----------------------------------------------------------------------|
A|---5-----------------------------------------------------------------------|
D|---5-----------------------------------------------------------------------|

e|---------------------------------------------------------------------------|
B|---------------------------------------------------------------------------|
G|---7-0-5-0-3-0-2-0--7-0-5-0-3-0-2-0--7-0-5-0-3-0-2-0--7-0-5-0-3-0-2-0------|
D|---------------------------------------------------------------------------|
A|---------------------------------------------------------------------------|
D|---------------------------------------------------------------------------|

e|---------------------------------------------------------------------------|
B|---------------------------------------------------------------------------|
G|---------------------------------------------------------------------------|
D|---1-----------------------------------------------------------------------|
A|---1-----------------------------------------------------------------------|
D|---1-----------------------------------------------------------------------|

e|---------------------------------------------------------------------------|
B|---------------------------------------------------------------------------|
G|---3-0-2-0-3-0-2-0-3-0-2-0-3/5----3-0-2-0-3-0-2-0-3-0-2-0-3-0-2-0----------|
D|---------------------------------------------------------------------------|
A|---------------------------------------------------------------------------|
D|---------------------------------------------------------------------------|

Pre chorus

Gtr 1
e|---------------------------------------------------------------------------|
B|---------------------------------------------------------------------------|
G|---------------------------------------------------------------------------|
D|---1--1--1----3--3--1--1—-1----1--1--1----3--3--1--1--1--------------------|
A|---1--1--1----3--3--1--1--1----1--1--1----3--3--1--1--1--------------------|
D|---1--1--1----3--3--1--1--1----1--1--1----3--3--1--1--1--------------------|

Gtr 2
e|---------------------------------------------------------------------------|
B|---------------------------------------------------------------------------|
G|---1--1--1----3--3--1--1--1----1--1--1----3--3--1--1--1--------------------|
D|---1--1--1----3--3--1--1--1----1--1--1----3--3--1--1--1--------------------|
A|---1--1--1----3--3--1--1--1----1--1--1----3--3--1--1--1--------------------|
D|---------------------------------------------------------------------------|

e|---------------------------------------------------------------------------|
B|----------------------------------------------------3----------------------|
G|--------3-3-3-3------3-3-3-3------5-5-5-5-------5-3---3-0------------------|
D|---1--1---------1--1---------3--3----------3--3----------------------------|
A|---1--1---------1--1---------3--3----------3--3----------------------------|
D|---1--1---------1--1---------3--3----------3--3----------------------------|

Chorus

e|---------------------------------------------------------------------------|
B|---------------------------------------------------------------------------|
G|---------------3-3-3-3------3-3-3-3------5-5-5-5------5-5-5-5--------------|
D|---5------1--1---------1--1---------3--3---------3--3----------------------|
A|---5-x16--1--1---------1--1---------3--3---------3--3----------------------|
D|---5------1--1---------1--1---------3--3---------3--3----------------------|


e|---------------------------------------------------------------------------|
B|---------------------------------------------------------------------------|
G|-----3-2-3-2-3-2------3-2-3-2-3-2---------3-3-3-3------3-3-3-3-------------|
D|---5-------------3--5-------------3--1--1---------1--1---------------------|
A|---5----------------5----------------1--1---------1--1---------------------|
D|---5----------------5----------------1—-1---------1--1---------------------|

e|---------------------------------------------------------------------------|
B|---------------------------------------------------------------------------|
G|-------5-5-5-5------5-5-5-5----3-2-3-2-3-2---------------------------------|
D|--3--3---------3--3----------5-------------3----3----1----3----------------|
A|--3--3---------3--3----------5------------------3----1----3----------------|
D|--3--3---------3--3----------5------------------3----1----3----------------|

Chorus Outro

Gtr 1
e|---------------------------------------------------------------------------|
B|---------------------------------------------------------------------------|
G|---------------------------------------------------------------------------|
D|---1-----5-----1-----3-----------------------------------------------------|
A|---1-x4--5-x4—-1-x4--3-x4--------------------------------------------------|
D|---1-----5-----1-----3-----------------------------------------------------|x2

Gtr 2
e|-----6---6---6---6--15-13-13-----------------------------------------------|
B|---8---8---8---8-----------------------------------------------------------|
G|---------------------------------------------------------------------------|
D|---------------------------------------------------------------------------|
A|---------------------------------------------------------------------------|
D|---------------------------------------------------------------------------|x8


Intro Part      
e|---------------------|   
B|---------------------|   
G|---------5--------5--|   
D|---5--5--5--5--5--5--|   
A|---5--5--5--5--5--5--|   
D|---5--5-----5--5-----|   




Bridge

Gtr 1
e|---------------------------------------------------|x4
B|---------------------------------------------------|
G|---------------------------------------------------|
D|---5-----1-----------------------------------------|
A|---5-x8--1-x8--------------------------------------|
D|---5-----1-----------------------------------------|


Gtr 2
e|--------13----13-------18-17-----------------------------------------------|
B|-----11----11----11----------18-15-----------------------------------------|
G|--12-----------------------------------------------------------------------|
D|---------------------------------------------------------------------------|
A|---------------------------------------------------------------------------|
D|---------------------------------------------------------------------------|x8

Chorus 

Chorus Outro... Then after 8 times:

Gtr 1
e|---------------------------------------------------------------------------|
B|---------------------------------------------------------------------------|
G|---------------------------------------------------------------------------|
D|--1-----5-----3------------------------------------------------------------|
A|--1-x8--5-x4--3-x4---------------------------------------------------------|
D|--1-----5-----3------------------------------------------------------------|x16

Gtr 2
e|-----6---6---6---6--15-13-13-----------------------------------------------|
B|---8---8---8---8-----------------------------------------------------------|
G|---------------------------------------------------------------------------|
D|---------------------------------------------------------------------------|
A|---------------------------------------------------------------------------|
D|---------------------------------------------------------------------------|x16

End On
e|---------------------------------------------------------------------------|
B|---------------------------------------------------------------------------|
G|---------------------------------------------------------------------------|
D|---1-----------------------------------------------------------------------|
A|---1-----------------------------------------------------------------------|
D|---1-----------------------------------------------------------------------|
            

comments powered by Disqus
↑ Back to top | A Skylit Drive Tabs for A Reason For Broken Wings. Lyrics for acoustic guitar and electric guitar. Tablatures and chords are parodies/interpretations of the original songs. You may use it for private study, scholarship, research or language learning purposes only