» » »

A Skylit Drive, A Reason For Broken Wings Bass tabs (ver.1)

Artists:  A B C D E F G H I J K L M N O P Q R S T U V W X Y Z # 

A Reason For Broken Wings Bass tabs (ver.1)

A Skylit Drive Tabs
 Rating:
4/5 (4 votes)
A Reason For Broken Wings lessons Tabs too difficult? Try these video lessons and learn fast
1
                +++++++++++++++++++++++++++++++++++++++++++++
| A Skylit Drive- A Reason For Broken Wings |
+++++++++++++++++++++++++++++++++++++++++++++

Drop D (DADG)

Intro
1.
G|----------------------------------------------------|
D|----------------------------------------------------|
A|----------------------------------------------------|
D|-55-5~-------55-5~--------11-1~--------33-3~--------|

2.
G|-------------------------------------------------------------------------|
D|-------------------------------------------------------------------------|
A|-------------------------------------------------------------------------|
D|-55555555-55555555-55555555-55555555-11111111-11111111-33333333-3~-------|

Verse
"The battle loves to choose..."
3.
G|-------------------------------------------------------------------------|
D|-------------------------------------------------------------------------|
A|-------------------------------------------------------------------------|
D|-55555555-55555555-55555555-55555555-11111111-11111111-11111111-11111111-|

"Spring morning rain..."
4.
G|-----------------------------------------------------------|
D|-----------------------------------------------------------|
A|-----------------------------------------------------------|
D|-5x------1-3-5x--------11111111-11111111-33333333-33333333-|

"The battle is one..." 
5.
G|-------------------------------------------|
D|-------------------------------------------|
A|-------------------------------------------|
D|-5x------1-3-5x--------1x------3-1x--------|

Pre-Chorus
6.
G|-------------------------|
D|-------------------------|
A|-------------------------|
D|-1~----1~----3~----3~----|

Verse
"Spring morning rain..."
7.
G|-------------------------------------------------------------------------|
D|-------------------------------------------------------------------------|
A|-------------------------------------------------------------------------|
D|-55555555-55555555-55555555-55555555-11111111-11111111-33333333-33333333-|

8.
G|-----------------------------------------------|
D|-----------------------------------------------|
A|-----------------------------------------------|
D|-5x------5-3-5x--------1~----1~----3~----3~----|

9.
G|-----------------------------------------------|
D|-----------------------------------------------|
A|-----------------------------------------------|
D|-5x------5-4-3x--------1~----1~----3~----3~----|

Chorus         (1 not 11)
"Dream of me..."  
10.
G|----------------------------------------------------------------|
D|----------------------------------------------------------------|
A|-------------------------11---------------------------------1---|--x2
D|-11-1-1-11-1-11-1-55-5-5----3-33-3--11-1-1-11-1-11-1-55-5-5---3-|

Outro
11.
G|----------------------------|
D|----------------------------|
A|----------------------------|
D|-55-5~--------55-5~---------|

Verse
"Grasping off your sheets..."
12.
G|-------------------------------------------------------------|
D|-------------------------------------------------------------|
A|-------------------------------------------------------------|
D|-55-55-55-5-55-5-11-11-11-1-11-1-55-55-55-5-55-5-11-11x------|

13.
G|--------------------------------------------------------------------|
D|--------------------------------------------------------------------|
A|--------------------------------------------------------------------|
D|-55-55-55-5-55-5-11-11-11-1-11-1-55-55-55-5-55-5-11-11-11-11-1-1-1x-|

This is a reason for broken wings!!!

Verse
"Spring morning rain..."
14.
G|-------------------------------------------------------------------------|
D|-------------------------------------------------------------------------|
A|-------------------------------------------------------------------------|
D|-55555555-55555555-55555555-55555555-11111111-11111111-33333333-33333333-|

15.
G|-----------------------------------------------|
D|-----------------------------------------------|
A|-----------------------------------------------|
D|-5x------5-3-5x--------1~----1~----3~----3~----|

16.
G|-----------------------------------------------|
D|-----------------------------------------------|
A|-----------------------------------------------|
D|-5x------5-4-3x--------1~----1~----3~----3~----|

Chorus         (1 not 11)
"Dream of me..."  
17.
G|----------------------------------------------------------------|
D|----------------------------------------------------------------|
A|-------------------------11---------------------------------1---|--x2
D|-11-1-1-11-1-11-1-55-5-5----3-33-3--11-1-1-11-1-11-1-55-5-5---3-|

"Close your eyes..."
18.
G|----------------------------------------------------------------|
D|----------------------------------------------------------------|
A|-------------------------11---------------------------------1---|
D|-11-1-1-11-1-11-1-55-5-5----3-33-3--11-1-1-11-1-11-1-55-5-5---3-|

Play for like a thousand times

Finish with
19.
G|------|
D|------|
A|------|
D|-1-1x-|

Lyrics: 

The battle loves to choose its fights
Collapse the sight of soldiers eyes
Bombs cascading over me
May my body rest in pieces

Spring mourning rain
Heal the wombs in me
On me
The battle is one
I’m now coming home

Spring mourning rain
Stitch me up with strings of symphonies

The battle is one
Close your eyes just dream
I’m not coming
Close your eyes just dream

Dream of me, lock inside your mind I’ll hide
Scream my name, fell me breath along your thighs
Close your eyes just dream

Grasping of your sheets
Turn out the lights
Holding on to memories
Never felt so right

Shaking, Squirming

In your skin tonight
Oh my Marie, oh my Marie

This is a reason for broken wings

Dream of me, lock inside your mind I’ll hide
Scream my name, fell me breath along your thighs
Close your eyes just dream

+++++++++++++++++++++++++++++++++
| RaiLeff                       |
+++++++++++++++++++++++++++++++++
            
Submit corrections

comments powered by Disqus
↑ Back to top | A Skylit Drive Bass for A Reason For Broken Wings. Lyrics for acoustic guitar and electric guitar. 1 Tablatures and chords are parodies/interpretations of the original songs. You may use it for private study, scholarship, research or language learning purposes only