>
 >
Enemy Within 1

Enemy Within 1 Guitar Tabs

Arch Enemy - Enemy Within 1 chords, tabs, tablatures, lyrics

Guitar lessons | Add/correct | Request | Top 50 tabs Artists:  A B C D E F G H I J K L M N O P Q R S T U V W X Y Z 0-9

Enemy Within 1 Guitar Tabs – Arch Enemy

CD, Sheet music, Poster

Do you like Enemy Within 1? Share with your friends now
TabsTabs v2Tabs v3Tabs v4
Tune - C F Bb Eb G C (Down 2 Steps)

Intro
  PM---   -----   -------   -------   --------|
|-----------------------------------------------|
|-----------------------------------------------|
|-----------------------------------------------|
|-----------------------------------------------|
|-2-2-2---2-2-2---2-2-2-2---2-2-2-2---2-2-2-2-2-|
|-0-0-0---0-0-0---0-0-0-0---0-0-0-0---0-0-0-0-0-|


  PM----------------------------------------------------------|2x
|----------------------------------------------------------------|
|o--------------------------------------------------------------o|
|----------------------------------------------------------------|
|----------------------------------------------------------------|
|o--------------------------------3-3-3-3-3-3-3-5-5-5-5-5-5-5-5-o|
|-0-0-0-0-0-0-0-0-0-0-0-0-0-0-0-0--------------------------------|

  PM----------------------------------------------------------|
|----------------------------------------------------------------|
|----------------------------------------------------------------|
|----------------------------------------------------------------|
|----------------------------------------------------------------|
|---------------------------------3-3-3-3-3-3-3-5-5-5-5-5-5-5-5--|
|-3-3-3-3-3-3-3-3-0-0-0-0-0-0-0-0--------------------------------|


    PM|   PM|   PM|   PM|   13x                    PM|   PM|   PM|   PM|      
|-3-0-0-2-0-0-5-0-0-3-0-0-2/3--||/3---5-3-2-----|-------------5----------------|-----5---------|
|o----------------------------o||-------------5-|-8-5-5-7-5-5---5-5-8-5-5-7/8--|/8-----8-7---5-|
|------------------------------||---------------|------------------------------|---------------|
|------------------------------||---------------|------------------------------|---------------|
|o----------------------------o||---------------|------------------------------|---------------|
|------------------------------||---------------|------------------------------|---------------|
|
|------------------------------||---------------|
|------------------------------||---------------|
|------------------------------||---------------|
|------------------------------||-5---7-------2-|
|------------------------------||-5---7-------2-|
|------------------------------||-3---5-------0-|


Main riff
  PM  PM  PM   PM  PM    PM  PM  PM  PM  PM
|----------------------|---------------------|
|o---------------------|---------------------|
|----------------------|---------------------|
|----------------------|---------------------|
|o--7---9---10---9---7-|---7---6---3---2-----|
|-0---0---0----0---0---|-0---0---0---0---0-3-|

  PM  PM  PM   PM  PM   Really PM this riff.  
|----------------------|---------------------|
|----------------------|---------------------|
|----------------------|---------------------|
|----------------------|---------------------|
|---7---9---10---9---7-|---------------------|
|-0---0---0----0---0---|-3-2-0-0-3-2-0-0-----|

  PM  PM  PM   PM  PM 
|----------------------|---------------------|
|----------------------|--------------------o|
|----------------------|---------------------|
|----------------------|-10-9-7--------------|
|---7---9---10---9---7-|--------10-9-7------o|
|-0---0---0----0---0---|---------------------|
|PM  PM  PM   PM  PM  
|----------------------|---------------------|
|----------------------|--------------------o|
|----------------------|--9-7-5--------------|
|----------------------|---------9-7-5-------|
|---7---9---10---9---7-|--------------------o|
|-0---0---0----0---0---|---------------------|

     PM|    PM|    PM|    PM|    PM|    PM|    PM|   PM|    PM|    PM|    PM|
|---------------------------------------------------------------------------------|
|---------------------------------------------------------------------------------|
|--9------9------9------9------9------9------9------9------9------9------9------9-|
|-10-----10-----10-----10-----10-----10-----10------9-----10-----10-----10-----10-|
|--7-7-7--7-7-7--7-7-7--7-7-7--7-7-7--7-7-7--7------------------------------------|
|----------------------------------------------7-7--7-8-8--8-8-8--8-8-8--8-8-8--8-|
Mute x x    x x    x x    x x    x x    x x    x x    x x    x x    x x    x x  
   PM|        
|--------------------|
|--------------------|
|--------------------|
|--------7--7---9--9-|
|--5--5--5--5---7--7-|
|--------------------|



The end solo i did not tab, it's too fast to tab. Plus i would need a tab machine....

|----------------|
|----------------|
|----------------|
|---------5------|
|-7-3-5-7-3-5----|
|-5-1-3-5---3----|

   PM------------  ------------  -------------  --------------
|-------------------------------------------------------------|-----|
|-------------------------------------------------------------|-----|
|-------------------------------------------------------------|-----|
|-------------------------------------------------------------|--5--|
|-7---------------3-------------5-------------7---------------|--3--|
|-5-5-5-5-5-5-5-5-1-1-1-1-1-1-1-3-3-3-3-3-3-3-5-5-5-5-5-5-5-5-|-----|


This tab was a real bitch to tab. I hope this helps you out. Um i also used some parts from other people, thus making it sound correct if u tune you're guitar to the tuning and then play it with the song.

- Archaos Jester





Comments


Popular Arch Enemy tabs & chords
Nemesis 2 Bass Tabs
We Will Rise Bass Tabs
Bury Me An Angel 1 Tabs
Carry The Cross 1 Tabs
Dark Insanity 1 Tabs
Diva Satanica Tabs
I Am Legend Out For Blood 2 Tabs
Nemesis 1 Tabs
Seed Of Hate 1 Tabs
Snow Bound 5 Tabs


Song lyrics



↑ Back to top | Tablatures and chords are parodies/interpretations of the original songs. You may use it for private study, scholarship, research or language learning purposes only
© 2014 AZChords.com Contact us | Privacy policy | DMCA | Add/correct tabs | Request tabs | Top 50 tabs