>
 >
Enemy Within 2

Enemy Within 2 Guitar Tabs

Arch Enemy - Enemy Within 2 chords, tabs, tablatures, lyrics

Guitar lessons | Add/correct | Request | Top 50 tabs Artists:  A B C D E F G H I J K L M N O P Q R S T U V W X Y Z 0-9

Enemy Within 2 Guitar Tabs – Arch Enemy

CD, Sheet music, Poster

Do you like Enemy Within 2? Share with your friends now
TabsTabs v2Tabs v3Tabs v4
tuned to c

intro
guitar 1 and 2
|------------------------------|
|------------------------------|
|------------------------------|
|------------------------------|
|--222--222--2222--2222--22222-|
|--000--000--0000--0000--00000-|
guitar 1
|------------------------------|
|------------------------------|
|------------------------------|
|------------------5555--77777-|
|--222--222--2222--3333--55555-|
|--000--000--0000--------------|
guitar 2                          guitar 1
|------------------------------|  |-----------------------------------|
|8-0-0-7-0-0-10-0-0-8-0-0-7h8--|  |12-0-0-10-0-0-13-0-0-12-0-0-10h12--|
|------------------------------|  |-----------------------------------|
|------------------------------|  |-----------------------------------|
|------------------------------|  |-----------------------------------|
|------------------------------|  |-----------------------------------|
fill
|-------------------|  |-------------------------|
|8--10-8-8-8h10p8-7-|  |12--13-12-12-12h13p12-10-|
|-------------------|  |-------------------------|
|-------------------|  |-------------------------|
|-------------------|  |-------------------------|
|-------------------|  |-------------------------|
verse
|-----------------------------------------------|
|-----------------------------------------------|
|-----------------------------------------------|
|-----------------------------------------------|
|--7----8----10---8----7----5----3----2---------|
|0----0----0----0----0----0----0----0----0-5-0-4|

|----------------------------------------------|
|----------------------------------------------|
|----------------------------------------------|
|----------------------------------------------|
|--7----8----10---8----7----5----3-------------|
|0----0----0----0----0----0----0----0-4310-4310|
fill
|------------------|
|10-9--------------|
|------10--9--7----|
|---------------10-|
|------------------|
|------------------|
chorus
|--------------------------------------------------------------------------|
|--------------------------------------------------------------------------|
|9----9----9----9----9----9----9----9----9----9----9----9------------------|
|10---10---10---10---9----9----9----9----10---10---10---10----7-7------9-9-|
|7-77-7-77-7-77-7-77------------------------------------------5-5-5555-7-7-|
|--------------------7-77-7-77-7-77-7-77-8-88-8-88-8-88-8-88---------------|

I don't know solo but here's the other part
back up solo
play the 0's as many times as you here them
|----------------------------------------------------------------|
|----------------------------------------------------------------|
|----------------------------------------------------------------|
|----------------------------------------------------------------|
|-5h8-7~---------5h8-7~---------5h8-7~----5h8-7~----5h8-7~-------|
|----------0--------------0------------0---------0---------0-----|

|-----------------------------------------------|
|-----------------------------------------------|
|-----------------------------------5-------7---|
|-2----------------2--------------5-------7-----|
|-0--------3---5---0--------0-2-3-------5-------|
|----------1---3--------------------------------|

on the last chorus guiatr 1 plays the same riff but
guitar 2 plays this one I think.
|-----------------------------------------------|
|-----------------------------------------------|
|-----------------------------------------------|
|-10-------------10/12\10-9------------------10-|
|-----------------------------------------------|
|--8--------------8/10\8--7-------------------8-|

|-----------------------------------------------|
|-----------------------------------------------|
|-----------------------------------------------|Gtr
|-----15-14---12-14-----------------------------|III
|-----------------------------------------------|
|-----13-12---10-12-----------------------------|
one comlpete chorus


|-----------------------------------------------|
|-----------------------------------------------|
|-----------------------------------------------|
|-10-------------10/12\10-9------------------10-|
|-----------------------------------------------|
|--8--------------8/10\8--7-------------------8-|

|-----------------------------------------------|
|-----------------------------------------------|
|-----------------------------------------------|
|-----17-16---14-16-----------------------------| 
|-----------------------------------------------|
|-----15-14---12-14-----------------------------|





Comments


Popular Arch Enemy tabs & chords
Nemesis 2 Bass Tabs
Dark Of The Sun 2 Tabs
First Deadly Sin Tabs
Hydra 1 Tabs
Leader Of The Rats Tabs
Let The Killing Begin 2 Tabs
Ravenous (Solo) Tabs
Silverwing 1 Tabs
Taking Back My Soul 1 Tabs
Vultures Intro Tabs


Song lyrics



↑ Back to top | Tablatures and chords are parodies/interpretations of the original songs. You may use it for private study, scholarship, research or language learning purposes only
© 2014 AZChords.com Contact us | Privacy policy | DMCA | Add/correct tabs | Request tabs | Top 50 tabs