>
 >
Diva Satanica 1

Diva Satanica 1 Guitar Tabs

Arch Enemy - Diva Satanica 1 chords, tabs, tablatures, lyrics

Guitar lessons | Add/correct | Request | Top 50 tabs Artists:  A B C D E F G H I J K L M N O P Q R S T U V W X Y Z 0-9

Diva Satanica 1 Guitar Tabs – Arch Enemy

CD, Sheet music, Poster

Do you like Diva Satanica 1? Share with your friends now
TabsTabs v2Tabs v3
/---------------------------------------------------------------------------/
/    The following is the author's own interpretation of the song, to be    /
/                     used for private use and studying                     /
/---------------------------------------------------------------------------/
  
                         ARCH ENEMY - DIVA SATANICA
                       From the Album STIGMATA IMPORT
                     Copyright 1998 WRONG AGAIN RECORDS

                            Version 666 - FEB '05

                Death8699

For Questions, Comments, Newest Version, or Corrections contact

Check Out Death Warp, With More Transcriptions On It:

..  - palm mute          /  - slide up to
 \  - slide down to      ~  - vibrato
 h  - hammer on          b  - bend
 p  - pull off            Suffixes for bend
                          ph - pinch harmonic
                           f - full bend    h - half bend
*  - see comment           r - release      t - tap bend
X  - percussion mute       ~ - vibrato bend
@  - slight palm mute     () - ghost note, sustained note

Tune Gtr to B (2.5 Whole Steps Down)

--DIVA SATANICA--

 |Rhy.Fig.1|
||-------------------------------------------------------------------|
||-------------------------------------------------------------------|
||:----------------10\9--------------------------3/7-----------------|
||:------------------------------------------------------------------|
||------------------8\7--------------------------1/5-----------------|
||--0--0--0-0-0-0----sl--0-0-0-0--0--0--0-0-0-0--sl---0-0-0-0--0--0--|
||  .  .  . . . .        . . . .  .  .  . . . .       . . . .  .  .  |
||-------------------------------------------------------------------|
||-------------------------------------------------------------------|
||----------10\9-----------------------------------------------------|
||-------------------------------------------------------------------|
||-----------8\7-----------------------------------------------------|
||--0-0-0-0---sl--0-0-0-0--3--3--3-3-3-3--1--1--1-1-1-1--------------|
||  . . . .       . . . .  .  .  . . . .  .  .  . . . .              |
||-------------------------------------------------------------------|
||-------------------------------------------------------------------|
||----------10\9-----------------------------------------------------|
||-------------------------5--5--5-5-5-5--3--3--3-3-3-3--------------|
||-----------8\7-----------------------------------------------------|
||--0-0-0-0---sl--0-0-0-0--------------------------------------------|
    . . . .       . . . .  .  .  . . . .  .  .  . . . . 

 |-------------------------------------------------------------------||
 |-------------------------------------------------------------------||
 |-----------------10\9--------------------------3/7-----------------||
 |-------------------------------------------------------------------||
 |------------------8\7--------------------------1/5-----------------||
 |--0--0--0-0-0-0----sl--0-0-0-0--0--0--0-0-0-0--sl---0-0-0-0--0--0--||
 |  .  .  . . . .        . . . .  .  .  . . . .       . . . .  .  .  ||
 |-------------------------------------------------------------------||
 |-------------------------------------------------------------------||
 |-----------10\9---------------------------------------------------:||
 |------------------------------------------------------------------:||
 |------------8\7----------------------------------------------------||
 |--0-0-0-0----sl--0-0-0-0--3--3--3-3-3-3--6--6--6-6-6-6-------------||
 |  . . . .        . . . .  .  .  . . . .  .  .  . . . .             ||
 |-------------------------------------------------------------------||
 |-------------------------------------------------------------------||
 |-----------10\9---------------------------------------------------:||
 |--------------------------5--5--5-5-5-5--8--8--8-8-8-8------------:||
 |------------8\7----------------------------------------------------||
 |--0-0-0-0----sl--0-0-0-0-------------------------------------------||
    . . . .        . . . .  .  .  . . . .  .  .  . . . . 


Play Rhy.Fig.1 a total of 2 times.


|Fill 1|
|--------------------------------||-----------------------------------------|
|--------------------------------||-----------------------------------------|
|:--7/9----9/11---11/12---12/14--||----7/9----9/11----17\16----14\13----10--|
|:-------------------------------||-----------------------------------------|
|---5/7----7/9----9/10----10/12--||----5/7----7/9-----15\14----12\11----8---|
|---sl--0"-sl--0"-sl---0"--sl----||-0"-sl--0"-sl---0"---sl--0"---sl--0"-----|
|       .      .       .            .      .       .        .        .      |
|--------------------------------||-----------------------------------------|
|--------------------------------||-----------------------------------------|
|--------------------------------||-----------------------------------------|
|---2-----------------------(2)--||-2----------------------------------(2)--|
|---2-----------------------(2)--||-2----------------------------------(2)--|
|---0-----------------------(0)--||-0----------------------------------(0)--|


|--------------------------------||-----------------------------------------|
|--------------------------------||-----------------------------------------|
|---7/9----9/11---11/12---12/14--||----7/9----9/11----17\16----14\13----10-:|
|--------------------------------||----------------------------------------:|
|---5/7----7/9----9/10----10/12--||----5/7----7/9-----15\14----12\11----8---|
|---sl--0"-sl--0"-sl---0"--sl----||-0"-sl--0"-sl---0"---sl--0"---sl--0"-----|
|       .      .       .            .      .       .        .        .      |
|--------------------------------||-----------------------------------------|
|--------------------------------||-----------------------------------------|
|--------------%-----------------||-------------------17\16----14\13----10--|
|--------------------------------||-----------------------------------------|
|--------------------------------||-------------------15\14----12\11----8---|
|--------------------------------||---------------------sl--0"---sl--0"-----|
                                                             .        .


Play Fill 1 a total of one time.


|Rhy.Fig.2|
|-------------------------------||-----------------------------------------|
|-------------------------------||-----------------------------------------|
|:--7/9----9/11---11/12---12/14-||----7/9----9/11----17\16----14\13----10-:|
|:------------------------------||----------------------------------------:|
|---5/7----7/9----9/10----10/12-||----5/7----7/9-----15\14----12\11----8---|
|---sl--0"-sl--0"-sl---0"--sl---||-0"-sl--0"-sl---0"---sl--0"---sl--0"-----|
         .      .       .           .      .       .        .        .


Play Rhy.Fig.2 a total of 2 times.



 |Rhy.Fig.3|
||----------------------------------||
||----------------------------------||
||:--------------------------------:||
||:--------------------------------:||
||---------3-3-3-3-2-2-2-2----------||
||-4-4-4-4-----------------1-1-1-1--||


Play Rhy.Fig.3 a total of 4 times.


Repeat Rhy.Fig.2 a total of 2 times.


|Rhy.Fig.4|
|---------------------------------||-------------------------------------------|
|---------------------------------||-------------------------------------------|
|:--14-----13------11-----10------||-12-12-12-11---12-14-16---14-12-----------:|
|:--11-----11------8------8-------||------------------------------------------:|
|---12-----11------9------8-------||-10-10-10-9----10-12-14---12-10------------|
|--------0--------------0---------||----------------------------------000-000--|
|        .              .                                             ... ...  |
|                                                                              |
|---------------------------------||-------------------------------------------|
|---------------------------------||-------------------------------------------|
|:--14-----13------11-----10------||-12-12-12-11---12-14-16---14-12-----------:|
|:--11-----11------8------8-------||------------------------------------------:|
|---12-----11------9------8-------||-10-10-10-9----10-12-14---12-10------------|
|--------0--------------0---------||----------------------------------000-000--|
         .              .                                             ... ...


Play Rhy.Fig.4 a total of 3 times.


|Fill 2|
|---------------------------------||-------------------------------------------|
|---------------------------------||-------------------------------------------|
|--14-----13------11-----10-------||-12-12-12-11---12-14-16--------------------|
|--11-----11------8------8--------||--------------------------8-(8)------------|
|--12-----11------9------8--------||-10-10-10-9----10-12-14---8-(8)------------|
|-------0--------------0----------||------------------------0-6-(6)------------|
        .              .                                    .


Play Fill 2 a total of one time.


Repeat Rhy.Fig.2 a total of 2 times.
Repeat Rhy.Fig.3 a total of 4 times.
Repeat Rhy.Fig.4 a total of one time.


|Fill 3|
|---------------------------------||-------------------------------------------|
|---------------------------------||-------------------------------------------|
|--14-----13------11-----10-------||-12-12-12-11---12-14-16\-------------------|
|--11-----11------8------8--------||-------------------------------------------|
|--12-----11------9------8--------||-10-10-10-9----10-12-14\-------------------|
|-------0--------------0----------||-----------------------sl------------------|
        .              .


Play Fill 3 a total of one time.


 |Rhy.Fig.5|
||---------------------------------------------------------------------------||
||---------------------------------------------------------------------------||
||:-------------------------------------------------------------------------:||
||:-------------------------------------------------------5--------------4--:||
||-----------------8-----------------8-----------------8-----4--------3------||
||--0--0-0-0-5--6-----0--0-0-0-5--6-----0--0-0-0-5--6-----------3--2---------||
    .  . . . .  .     .  . . . .  .     .  . . . .  . 


Play Rhy.Fig.5 a total of 4 times.


 |Rhy.Fig.5a|
||---------------------------------------------------------------------------||
||---------------------------------------------------------------------------||
||:-------------------------------------------------------------------------:||
||:-------------------------------------------------------5--------------4--:||
||-----------------8~----------------8~----------------8-----4--------3------||
||--0--0-0-0-5--6-----0--0-0-0-5--6-----0--0-0-0-5--6-----------3--2---------||
    .  . . . .  .     .  . . . .  .     .  . . . .  .


Play Rhy.Fig.5a a total of 4 times.


 |Rhy.Fig.6|
||------------------------------------||
||------------------------------------||
||:-9--------------------5---4---10--:||
||:-9---10---9---5---2---5---4---10--:||
||--7---10---9---5---2---3---2---8----||
||------8----7---3---0----------------||


Play Rhy.Fig.6 a total of 2 times.


 |Rhy.Fig.6a|
||-------------------------------------------------------------------||
||-------------------------------------------------------------------||
||:-----------------------------------------------------------------:||
||:-----------------------------------------------------------------:||
||--7-7-7-7---------------------------------3-3-3-3-2-2-2-2-8-8-8-8--||
||----------8-8-8-8-7-7-7-7-3-3-3-3-0-0-0-0--------------------------||


Play Rhy.Fig.6a a total of 2 times.


Repeat Rhy.Fig 1 a total of one time.


 |Rhy.Fig.1a|
||-------------------------------------------------------------------|
||-------------------------------------------------------------------|
||:----------------10\9--------------------------3/7-----------------|
||:------------------------------------------------------------------|
||------------------8\7--------------------------1/5-----------------|
||--0--0--0-0-0-0----sl--0-0-0-0--0--0--0-0-0-0--sl---0-0-0-0--0--0--|
||  .  .  . . . .        . . . .  .  .  . . . .       . . . .  .  .  |
||-------------------------------------------------------------------|
||-------------------------------------------------------------------|
||----------10\9-----------------------------------------------------|
||-------------------------------------------------------------------|
||-----------8\7-----------------------------------------------------|
||--0-0-0-0---sl--0-0-0-0--3--3--3-3-3-3--1--1--1-1-1-1--------------|
||  . . . .       . . . .  .  .  . . . .  .  .  . . . .              |
||-------------------------------------------------------------------|
||-------------------------------------------------------------------|
||----------10\9-----------------------------------------------------|
||-------------------------5--5--5-5-5-5--3--3--3-3-3-3--------------|
||-----------8\7-----------------------------------------------------|
||--0-0-0-0---sl--0-0-0-0--------------------------------------------|
    . . . .       . . . .  .  .  . . . .  .  .  . . . . 

 |-------------------------------------------------------------------||
 |-------------------------------------------------------------------||
 |-----------------10\9--------------------------3/7-----------------||
 |-------------------------------------------------------------------||
 |------------------8\7--------------------------1/5-----------------||
 |--0--0--0-0-0-0----sl--0-0-0-0--0--0--0-0-0-0--sl---0-0-0-0--0--0--||
 |  .  .  . . . .        . . . .  .  .  . . . .       . . . .  .  .  ||
 |-------------------------------------------------------------------||
 |-------------------------------------------------------------------||
 |-----------10\9---------------------------------------------------:||
 |-----------------------------------------8--8---------------------:||
 |------------8\7--------------------------8--8----------------------||
 |--0-0-0-0----sl--0-0-0-0--3--3--3-3-3-3--6--6----------------------||
 |  . . . .        . . . .  .  .  . . . .  .  .                      ||
 |-------------------------------------------------------------------||
 |-------------------------------------------------------------------||
 |-----------10\9---------------------------------------------------:||
 |--------------------------5--5--5-5-5-5--8--8---------------------:||
 |------------8\7--------------------------8--8----------------------||
 |--0-0-0-0----sl--0-0-0-0-----------------6--6----------------------||
    . . . .        . . . .  .  .  . . . .  .  .  

End!





Comments


Popular Arch Enemy tabs & chords
Ravenous Bass Tabs
We Will Rise Bass Tabs
Bury Me An Angel Tabs
Bury Me An Angel 1 Tabs
End Of The Line 1 Tabs
Enemy Within 1 Tabs
Eureka Tabs
Saints And Sinners Tabs
Silent Wars Tabs
Sinister Mephisto Tabs


Song lyrics



↑ Back to top | Tablatures and chords are parodies/interpretations of the original songs. You may use it for private study, scholarship, research or language learning purposes only
© 2014 AZChords.com Contact us | Privacy policy | DMCA | Add/correct tabs | Request tabs | Top 50 tabs