>
 >
Diva Satanica

Diva Satanica Guitar Tabs

Arch Enemy - Diva Satanica chords, tabs, tablatures, lyrics

Guitar lessons | Add/correct | Request | Top 50 tabs Artists:  A B C D E F G H I J K L M N O P Q R S T U V W X Y Z 0-9

Diva Satanica Guitar Tabs – Arch Enemy

CD, Sheet music, Poster

Do you like Diva Satanica? Share with your friends now
TabsTabs v2Tabs v3
ARCH ENEMY - DIVA SATANICA
                         From the Album BURNING JAPAN LIVE
                         Copyright 1999 TOY'S FACTORY
                         Version 2.0 - NOVEMBER 2001

Version 2.0 by: death8699 

For Questions, Comments, Newest Version, or Corrections contact


Tablature Notation
------------------
.  - palm mute                  /  - slide up to
\  - slide down to              ~  - vibrato             
h  - hammer on                  b  - bend 
p  - pull off                   Suffixes for bend    
ph - pinch harmonic             f - full bend    h - half bend
*  - see comment                r - release      t - tap bend
X  - percussion mute            ~ - vibrato bend
@  - slight palm mute           () - ghost note, sustained note

Tune Gtr to C

DIVA SATANICA

Riff A
|--------------------------------------------------------|
|--------------------------------------------------------|
|----------10\9---------------3/7---------------10\9-----|
|--------------------------------------------------------|
|-----------8\7---------------1/5----------------8\7-----|
|-0-0-0000------0000-0-0-0000-----0000-0-0-0000-----0000-|
| . . ....      .... . . ....     .... . . ....     ....   
|               
|                [1,3]                [2,4]
|--------------------|--------------------|
|--------------------|--------------------|
|--------------------|--------------------|
|-*5-5-5555-3-3-3333-|-*5-5-5555-8-8-8888-|
|--------------------|--------------------|
|-*3-3-3333-1-1-1111-|-*3-3-3333-6-6-6666-|
   . . .... . . ....    . . .... . . ....


*Note Guitar 1 plays the upper octave and Guitar 2 the lower octave


Fill 1                                                                 Guitar 1
|------------------------------------------------------------------------------|
|------------------------------------------------------------------------------|
|-7/9---9/11-------11/12---12/14--------7/9---9/11--------17\16---14\13--10~---|
|------------------------------------------------------------------------------|
|-5/7---7/9---------9/10---10/12--------5/7---7/9---------15\14---12\11---8~---|
|-----0"-----0"----------0"------0"---------0"-----0"-----------0"------0------|
|     .      .           .       .          .      .            .       .
|
|                                                                       Guitar 2
|-------------------------------------------------------------------------------|
|-------------------------------------------------------------------------------|
|-------------------------------------------------------------------------------|
|-2------(2)------(2)------(2)----------2---------------------------------------|
|-2------(2)------(2)------(2)----------2---------------------------------------|
|-0------(0)------(0)------(0)----------0---------------------------------------|
|
|                                                                       Guitar 1
|-------------------------------------------------------------------------------|
|-------------------------------------------------------------------------------|
|-7/9---9/11-------11/12---12/14--------7/9---9/11--------17\16---14\13---10~---|
|-------------------------------------------------------------------------------|
|-5/7---7/9---------9/10---10/12--------5/7---7/9---------15\14---12\11----8~---|
|-----0"-----0"----------0"------0"---------0"-----0"-----------0"------0-------|
|     .      .           .       .          .      .            .       .
|
|                                                                       Guitar 2
|-------------------------------------------------------------------------------|
|-------------------------------------------------------------------------------|
|---------------------------------------------------------17\16---14\13---10~---|
|-------------------------------------------------------------------------------|
|---------------------------------------------------------15\14---12\11----8~---|
|---------------------------------------------------------------0"------0-------|                                        .
                                                                .       .


Riff B                                                              Play 2 Times                                            
|-------------------------------------------------------------------------------|
|-------------------------------------------------------------------------------|
|-7/9---9/11-------11/12---12/14--------7/9---9/11--------17\16---14\13---10~---|
|-------------------------------------------------------------------------------|
|-5/7---7/9---------9/10---10/12--------5/7---7/9---------15\14---12\11----8~---|
|-----0"-----0"----------0"------0"---------0"-----0"-----------0"------0-------|
      .      .           .       .          .      .            .       .


Riff C Play 4 times
|------------------|
|------------------|
|------------------|
|------------------|
|-----33332222-----|
|-4444--------1111-|


Repeat Riff B x 2


Riff D                                                          Play 3 times
|--------------------------------|------------------------------------------|
|--------------------------------|------------------------------------------|
|-14-----13------11-----10-------|-12-12-12-10---12-14-16---14-12-----------|
|-11-----11------8------8--------|------------------------------------------|
|-12-----11------9------8--------|-10-10-10-9----10-12-14---12-10-----------|
|------0--------------0----------|----------------------------------000-000-|
|      .              .                                             ... ...
|
|--------------------------------|------------------------------------------|
|--------------------------------|------------------------------------------|
|-14-----13------11-----10-------|-12-12-12-10---12-14-16---14-12-----------|
|-11-----11------8------8--------|------------------------------------------|
|-12-----11------9------8--------|-10-10-10-9----10-12-14---12-10-----------|
|------0--------------0----------|----------------------------------000-000-|
       .              .                                             ... ...


Fill 2
|--------------------------------|------------------------------------------|
|--------------------------------|------------------------------------------|
|-14-----13------11-----10-------|-12-12-12-10---12-14-16-------------------|
|-11-----11------8------8--------|--------------------------8-(8)-----------|
|-12-----11------9------8--------|-10-10-10-9----10-12-14---8-(8)-----------|
|------0--------------0----------|------------------------0-6-(6)-----------|
       .              .                                   .             


Repeat Riffs B x 4, C x 4, B x 2, D x 3


Fill 3
|--------------------------------|----------------------------|
|--------------------------------|----------------------------|
|-14-----13------11-----10-------|-12-12-12-10---12-14-16\----|
|-11-----11------8------8--------|----------------------------|
|-12-----11------9------8--------|-10-10-10-9----10-12-14\----|
|------0--------------0----------|----------------------------|
       .              .                                                                        


Riff E1                               Play 4 times
|-------------------------------------------------|
|-------------------------------------------------|
|-------------------------------------------------|
|-------------------------------------5---------4-|
|-----------8-----------8-----------8---4-----3---|
|-0-000-5-6---0-000-5-6---0-000-5-6-------3-2-----|
  . ... . . . . ... . . . . ... . . . 


Riff E2 (under solo)                                   Play 4 times
|------------------------------------------------------------------|
|------------------------------------------------------------------|
|------------------------------------------------------------------|
|-------------------------------------------------5-----------4----|
|-------------8~--------------8~--------------8~----4-------3------|
|-0-0-0-0-5-6-----0-0-0-0-5-6-----0-0-0-0-5-6---------3---2--------|
  . . . . . .     . . . . . .     . . . . . .  


Riff F                           [1-2]                              [3-4]
|------------------------------------|----------------------------------|
|------------------------------------|----------------------------------|
|------------------------------------|----------------------------------|
|-9--------------------5---4---10----|----------------------------------|
|-7---10---9---5---2---3---2---8-----|-7777----------------333322228888-|
|-----8----7---3---0-----------------|-----8888777733330000-------------|


Riff A'                                                                                  
|--------------------------------------------------------|
|--------------------------------------------------------|
|----------10\9---------------3/7---------------10\9-----|
|--------------------------------------------------------|
|-----------8\7---------------1/5----------------8\7-----|
|-0-0-0000------0000-0-0-0000-----0000-0-0-0000-----0000-|
| . . ....      .... . . ....     .... . . ....     ....   
|
|                [1,3]                  [2]               [4]
|--------------------|--------------------|-----------------|
|--------------------|--------------------|-----------------|
|--------------------|--------------------|-----------------|
|-*5-5-5555-3-3-3333-|-*5-5-5555-8-8-8888-|-*5-5-5555-**8-8-|
|--------------------|--------------------|-----------**8-8-|
|-*3-3-3333-1-1-1111-|-*3-3-3333-6-6-6666-|-*3-3-3333-**6-6-|
   . . .... . . ....    . . .... . . ....    . . ....   . .


*Note Guitar 1 plays the upper octave and Guitar 2 the lower octave
**Both guitars play chords, ending on the last.





Comments


Popular Arch Enemy tabs & chords
Dead Eyes See No Future 2 Bass Tabs
We Will Rise Bass Tabs
Cosmic Retribution Tabs
Dark Insanity Tabs
Dead Bury Their DeadSolo Tabs
Intermezzo Liberte 2 Tabs
Let The Killing Begin Tabs
Marching On A Dead End Road 2 Tabs
Rise Of The Tyrant Intro Tabs
We Will Rise 2 Tabs


Song lyrics



↑ Back to top | Tablatures and chords are parodies/interpretations of the original songs. You may use it for private study, scholarship, research or language learning purposes only
© 2014 AZChords.com Contact us | Privacy policy | DMCA | Add/correct tabs | Request tabs | Top 50 tabs