» » »

Thomas Tabs (ver.1)

Artists:  A B C D E F G H I J K L M N O P Q R S T U V W X Y Z # 

Thomas Tabs (ver.1)

A Perfect Circle
Rating:
0/5 (0 votes)

Hard to play? Try these video lessons and learn fast.
                "Thomas" - A Perfect Circle


This is just the intro.  I figured since it's always wrong
on the internet that I could try myself...  and this sounds
about 99% correct.  I've also included the Pre-Verse riff
as well as the Verse riff.  As far as the rest of the song 
goes... You should be able to figure it out now since you 
have the tuning.


Tuning (low to high): C#-F#-B-E-A-B

The tuning is Standard (E-A-D-G-B-E) down 1 and a half steps, then you drop
the 1st string down another whole step.

p  - pull off
\  - slide down
pm - palm mute (indicated with a (-) below the desired note/chord)


**Intro** (w/fingers)

|-------------------------|-------------------------|
|-10-------10-------------|-9-------9-------9-------|
|----11-------11-11-------|---11------11------11----|
|-------11----------11p10-|------10------10------10-|
|--9--------9-------------|-9-------9-------9-------|
|-------------------------|-------------------------|


|--0----------------|--0---------------|--0--------|
|-------------------|------------------|-----------|
|----11----11-------|----11----11------|----11-----|
|-------11----11----|-------11----11---|-------11\-|
|-------------------|------------------|-----------|
|-10-------------10-|-10-------------x-|-10--------|


|-------------------------|-------------------14-------|
|-10-------10-------------|-9-------9-------9----------|
|----11-------11-11-------|---11------11---------------|
|-------11----------11p10-|------10------10------10----|
|--9--------9-------------|-9-------9-------9----------|
|-------------------------|-------------------------10-|


|--0-------14-------|--0----------------|--0-14-----|
|-------------------|-------------------|-----------|
|----11-------------|----11----11-------|-----------|
|-------11----11----|-------11----11----|-------11\-|
|-------------------|-------------------|-----------|
|-10-------------10-|-10-------------10-|-10--------|


**Pre-Verse**

|------------------------------|
|------------------------------|
|------------------------------|X 3
|-x-x-2--2--5-5/--12--12\--8-8-|
|-x-x-2--2--5-5/--12--12\--8-8-|
|-x-x-0--0--3-3/--10--10\--6-6-|


|---------------------------------------|
|---------------------------------------|
|---------------------------------------|
|-x-x-2--2--5-5/--12--12\--8-8--8-8-8-8-|
|-x-x-2--2--5-5/--12--12\--8-8--8-8-8-8-|
|-x-x-0--0--3-3/--10--10\--6-6--6-6-6-6-|


**Verse**

|-------------------------------|
|-------------------------------|
|-------------------------------|
|--10------------12--12--12--10-|
|--10-(22-times)-12--12--12--10-|
|---8------------10--10--10---8-|
pm  _


|------------------------------------|
|------------------------------------|
|------------------------------------|
|--10------------12--12--12--12--12\-|
|--10-(21-times)-12--12--12--12--12\-|
|---8------------10--10--10--10--10\-|
pm  _


Any comments or corrections are welcome.  Thanks!
            
Hard to play? Try these video lessons and learn fast. | Correct




comments powered by Disqus
↑ Back to top | Tablatures and chords are parodies/interpretations of the original songs. You may use it for private study, scholarship, research or language learning purposes only