>
 >
The Hollow

The Hollow Guitar Tabs

A Perfect  Circle - The Hollow chords, tabs, tablatures, lyrics

Guitar lessons | Add/correct | Request | Top 50 tabs Artists:  A B C D E F G H I J K L M N O P Q R S T U V W X Y Z 0-9

The Hollow Guitar Tabs – A Perfect Circle

CD, Sheet music, Poster

Do you like The Hollow? Share with your friends now
Bass TabsChordsDrum TabsTabsTabs v2Tabs v3Tabs v4Ukulele
Tuning- C# F# B E G# C#
Intro

Gtr.2
|--------------------------------------|
|--------------------------------------|
|--------------------------------------|
|-11---11-11\9-9---9------4-4----2-----|
|-11-x-11-11\9-9---9--x-x-4-4-x--2-----|
|--9-x--9--9\7-7---7--x-x-2-2-x--0-2p0-|
         
|--------------------------------------|
|--------------------------------------|
|--------------------------------------|
|-4/11-11-11\9-9---9------2-2-----9--9/|
|-4/11-11-11\9-9---9--x-x-2-2-x-x-9--9/|
|-2--9--9--9\7-7---7--x-x-0-0-x-x-7--7/|

Gtr.1
|-------------------------------------------|
|-------------------------------------------|
|-13-13-13-13-13/16-16-16-16-16-16-16-16-16-|
|--x--x--x--x--x--x--x--x--x--x--x--x--x--x-|
|-11-11-11-11-11/14-14-14-14-14-14-14-14-14-|
|-------------------------------------------|

|------------------------------------------|
|------------------------------------------|
|-13-13-13-13-13-13-13-13-13-13/9-9-9-9-9--|
|--x--x--x--x--x--x--x--x--x--x-x-x-x-x-x--|
|-11-11-11-11-11-11-11-11-11-11/7-7-7-7-7--|
|------------------------------------------|

|---------------------------------------------|
|---------------------------------------------|
|-13-13-13-13-13/16-16-16-16-16-/18-18\-16-16-|
|--x--x--x--x--x--x--x--x--x--x---x--x---x--x-|
|-11-11-11-11-11/14-14-14-14-14-/16-16\-14-14-|
|---------------------------------------------|

|-------------------------------------------|
|-------------------------------------------|
|-13-13-13-13-13-13-13-13-13-13-13-13-13-13-|
|--x--x--x--x--x--x--x--x--x--x--x--x--x--x-|
|-11-11-11-11-11-11-11-11-11-11-11-11-11-11-|
|-------------------------------------------|
Verse w/ ring modulater
|-----------------14-------------|-------------14--------------|
|-------------12-----12----------|----------12----12-----------|
|-----------9-----------9--------|--------9----------9---------|
|-------13----------------13-----|-----13--------------13------|
|----11----------------------11--|--11--------------------11---|
|-9------------------------------|9----------------------------|

Chorus
guitar 2:
|---------------------------|
|---------------------------|
|---------------------------|
|-7-7-7-7-6-6-6-6-2---------|
|-7-7-7-7-6-6-6-6-2-/7-7--2-|
|-5-5-5-5-4-4-4-4-0---------|

|---------------------------------|
|---------------------------------|
|---------------------------------|
|-7-7-7-7-6-6-6-6-2-2-2-2-2-9-9-9-|
|-7-7-7-7-6-6-6-6-2-2-2-2-2-9-9-9-|
|-5-5-5-5-4-4-4-4-0-0-0-0-0-7-7-7-|

guitar 1:
|--16-19-16-----------------------------------------------------|
|-----------16-17-16--------------------------------------------|
|--------------------16-----------------------------13-13-13----|
|-----------------------18---------------16-18--\11-------11-11-|
|--------------------------19-19-18-18-19-----------------------|
|---------------------------------------------------------------|

|----------------------------------------------------------------|
|----------------------------------------------------------------|
|--------16-16--14-13------13------16-16/18------13-13-----------|
|-/14-14-------------11-11-11-11/14---------11-11------11-/13-13-|
|----------------------------------------------------------------|
|----------------------------------------------------------------|
 this whole part is delayed

Verse 2
Gtr.2
|--------------------------------------|
|--------------------------------------|
|--------------------------------------|
|-11---11-11\9-9---9------4-4----2-----|
|-11-x-11-11\9-9---9--x-x-4-4-x--2-----|
|--9-x--9--9\7-7---7--x-x-2-2-x--0-2p0-|
         
|--------------------------------------|
|--------------------------------------|
|--------------------------------------|
|-4/11-11-11\9-9---9------2-2-----9--9/|
|-4/11-11-11\9-9---9--x-x-2-2-x-x-9--9/|
|-2--9--9--9\7-7---7--x-x-0-0-x-x-7--7/|


Gtr.1
|-----------------14-------------|-------------14--------------|
|-------------12-----12----------|----------12----12-----------|
|-----------9-----------9--------|--------9----------9---------|
|-------13----------------13-----|-----13--------------13------|
|----11----------------------11--|--11--------------------11---|
|-9------------------------------|9----------------------------|
*this time no effects

Interlude

Gtr.1

|--------------------------------------------------------|
|--------------------------------------------------------|
|--------------------------------------------------------|
|--9--9/11-11-11-11\-9--9---9--9/13-13-13\8-8-8/-9--9--9-|
|-11-11/13-13-13-13\11-11--11-11/14-14-14\9-9-9/11-11-11-|
|-------------------------------/12-12-12\7-7-7/---------|

Gtr.2

|----------------------------------------------------------------|
|--121212121212/14-14-14-14-14/16-16-16-16-16-16-16-16-16-16-16/-|
|----------------------------------------------------------------|
|---9-9-9-9-9-9/11-11-11-11-11/13-13-13-13-13-13-13-13-13-13-13/-|
|----------------------------------------------------------------|
|----------------------------------------------------------------|

|---------------------------------------------|
|19-19-19-19-19-19-19-19-19/21\14-14-14-14-14-|
|---------------------------------------------|
|16-16-16-16-16-16-16-16-16/18\11-11-11-11-11-|
|---------------------------------------------|
|---------------------------------------------|

Chorus 2 
Gtr.2 x1
|----------------------------0----------|
|----------------------------0----------|
|-------8--------6-----13---------------|
|----6---------4-------11---------------|
|-/4---------2-----7/9-----2------------|
|----------0---------------0------------|

Gtr.1 x1
|----------------------------0----------|
|----------------------------0----------|
|-------8--------6----------------------|
|----6---------4---4-4-4----------------|
|-/4---------2-----2h4-4---2------------|
|----------0-------2-2-2---0------------|

Gtr.2 x2
|-----------------------------0--------|
|-----------------------------0--------|
|-------8--------6---------------------|
|----6---------4---------6-------------|
|-/4---------2---------4----2----------|
|----------0-------0-2------0----------|

Gtr.1 x2
|-----------------------------0--------|
|-----------------------------0--------|
|-------8--------6---------------------|
|----6---------4---------6-------------|
|-/4---------2---------4----2----------|
|----------0-------0-2------0----------|

Gtr.2 x1
|----------------------------0----------|
|----------------------------0----------|
|-------8--------6-----13---------------|
|----6---------4-------11---------------|
|-/4---------2-----7/9-----2------------|
|----------0---------------0------------|

Gtr.1 x1
|----------------------------0----------|
|----------------------------0----------|
|-------8--------6----------------------|
|----6---------4---4-4-4----------------|
|-/4---------2-----2h4-4---2------------|
|----------0-------2-2-2---0------------|

Bridge

Gtr.1

|----------------------------------------------------------------|
|----------------------------------------------------------------|
|----------------------------------------------------------------|
|-11-11-11-11-11-11/13-13-13-13-13-13/14-14-14-14-14-14--7-7-7-11|
|-11-11-11-11-11-11/13-13-13-13-13-13/14-14-14-14-14-14--7-7-7-11|
|-9--9--9--9--9--9-/11-11-11-11-11-11/12-12-12-12-12-12--5-5-5--9|
  p.m.............. p.m.............. p.m..............

Gtr.2

|-------------------------------------------------------------|
|-------------------------------------------------------------|
|18-18-18/16-16/11-11-11-11/1313131313/9-9-9/11/8-8-8/(9)/(6)-|
|-x--x--x--x--x--x--x--x--x--x-x-x-x-x-x-x-x--x-x-x-x--x---x--|
|16-16-16/14-14/ 9--9--9--9/1111111111/7-7-7/ 9/6-6-6/(7)/(4)-|
|-------------------------------------------------------------|

Chorus 3/Outro
guitar 2:
|---------------------------|
|---------------------------|
|---------------------------|
|-7-7-7-7-6-6-6-6-2---------|
|-7-7-7-7-6-6-6-6-2-/7-7--2-|
|-5-5-5-5-4-4-4-4-0---------|

|---------------------------------|
|---------------------------------|
|---------------------------------|
|-7-7-7-7-6-6-6-6-2-2-2-2-2-9-9-9-|
|-7-7-7-7-6-6-6-6-2-2-2-2-2-9-9-9-|
|-5-5-5-5-4-4-4-4-0-0-0-0-0-7-7-7-|

guitar 1:
|--16-19-16-----------------------------------------------------|
|-----------16-17-16--------------------------------------------|
|--------------------16-----------------------------13-13-13----|
|-----------------------18---------------16-18--\11-------11-11-|
|--------------------------19-19-18-18-19-----------------------|
|---------------------------------------------------------------|

|----------------------------------------------------------------|
|----------------------------------------------------------------|
|--------16-16--14-13------13------16-16/18------13-13-----------|
|-/14-14-------------11-11-11-11/14---------11-11------11-/13-13-|
|----------------------------------------------------------------|
|----------------------------------------------------------------|
 this whole part is delayed





Comments


Popular A Perfect Circle tabs & chords
People Are People Bass Tabs
3 Libras 2 Chords
Brena Chords
Orestes 3 Chords
Orestes Tabs
Over Tabs
Over 1 Tabs
Rose 2 Tabs
Sleeping Beauty 1 Tabs
The Noose 2 Tabs


Song lyrics



↑ Back to top | Tablatures and chords are parodies/interpretations of the original songs. You may use it for private study, scholarship, research or language learning purposes only
© 2014 AZChords.com Contact us | Privacy policy | DMCA | Add/correct tabs | Request tabs | Top 50 tabs