» » »

A Perfect Circle, Sleeping Beauty Tabs (ver.2)

Artists:  A B C D E F G H I J K L M N O P Q R S T U V W X Y Z # 

Sleeping Beauty Tabs (ver.2)

A Perfect Circle Tabs
 Rating:
4/5 (4 votes)
Sleeping Beauty lessons Tabs too difficult? Try these video lessons and learn fast
                A perfect circle
"Sleeping Beauty"
Mer De Noms(sea of names)


"dropped d tuning" tuned one half step down (Db Ab Db Gb Bb Eb)

notation key

h=hammer on  ()=let ring
p=pulloff
\=slide down
/=slide up
p=under the tablature means to palm mute

figure out the timeing and such and you'll be aight..peace


intro

|---------------------|----------------------------------
|---------------------|----------------------------------
|---------------------|----------------------------------
|---------------------|------4p2-4p2---4p2---4p2-4p2-----
|-2h3p2p0-3p0-0-0-----|--0-0-----------------------------
|---------------------|--0-0---------0-----0-------------
|             p          p p         p     p
|
|---------------------|----------------------------------
|---------------------|----------------------------------
|---------------------|----------------------------------
|---------------------|------4---------------------------
|-2h3p2p0-3---0-3p0-3-|--0-0-5---------------------------
|-----------5---------|--0-0-0---------------------------

0:21 verse riff (rhythm gtr repeats this riff for duration of verse)

|----------------------------|---------------------------
|----------------------------|---------------------------
|----------------------------|---------------------------
|----4p2-4p2---4p2---4p2-4p2-|---------------------------
|-00-------------------------|-9h10p99-10-9-10\7-7-------
|-00---------0-----0---------|-9h10p99-10-9-10\7-7-------

  pp         p     p                 p

lead verse fig (to be played over verse riff)

|----------------------------|---------------------------
|----------------------------|---------------------------
|----------------------------|---------------------------
|--4-4p5-5/(7)---------------|---------------------------
|----------------------------|---------------------------
|----------------------------|---------------------------
            * feed back

|----------------------------|---------------------------
|----------------------------|---------------------------
|----------------------------|---------------------------
|--4-4p5-5/7-------0---------|---------------------------
|----------------------------|-2p3h22-3h22-3h0-0---------
|----------------------------|---------------------------

|----------------------------|---------------------------
|----------------------------|---------------------------
|----------------------------|---------------------------
|--4-4p5-5/7-------0---------|---------------------------
|----------------------------|-2p3h22-3h22-3h0-0---------
|----------------------------|---------------------------

|----------------------------|---------------------------
|----------------------------|---------------------------
|----------------------------|---------------------------
|--7----7/(10)---10\(7)------|--7----7/(10)---10\(7)-----
|----------------------------|---------------------------
|----------------------------|---------------------------

0:52 bridge riff


|----------------------------
|----------------------------
|----------------------------
|-4-44/5-5/7-77/10-10-10\7-7-
|----------------------------
|-4-44/5-5/7-77/10-10-10\7-7-

1:18 chorus (simply a 4/4 version of the verse riff, with the measures 
switched. after the chorus is sang, this riff continues right into the next verse, 
which is in 4/4 and not the f**ked up time signature like the first verse. also, in 
this verse, the guitars just double each other with slight variations.)

|----------------------------|---------------------
|----------------------------|---------------------
|----------------------------|---------------------
|----4p2-4p2---4p2---4p2-4p2-|---------------------
|-00-------------------------|-2h3p2p0-3---0-3p0-3-
|-00---------0-----0---------|-----------5---------

  pp         p     p                 p


2:05 here, the chorus is sang over the bridge riff

2:54 interlude- to accurately replicate with one guitar, stretch pinky to 
reach major 3rd note the fourth string. it may be a b**ch, but it sounds good. listen to the song for the strumming pattern. this is in 6/8 time.

|----------------------------|---------------------
|----------------------------|---------------------
|----------------------------|---------------------
|-9-------------12-----------|-9--9\7----14--------
|-5--------------8-----------|-5--5\3----10--------
|-5--------------8-----------|-5--5\3---/10--------

3:18 the same chords are played again, but in 4/4 time, with the solo over it.

|----------------------------------------------------------------
|----------------------------------------------------------------
|--11--14-11-14-11-----14-11-14-11--14-11-14-14/16-16-16-14-12-14
|----------------------------------------------------------------
|----------------------------------------------------------------
|----------------------------------------------------------------

|----------------------------------------------------------------
|----------------------------------------------------------------
|--11--14-11-14-11-----14-11-14-11\9-9-/16-16-16-14-12-14--------
|----------------------------------------------------------------
|----------------------------------------------------------------
|----------------------------------------------------------------

|----------------------------------------------------------------
|----------------------------------------------------------------
|--11--14-11-14-11-----14-11-14-11--14-11-14-14/16-16-16-14-12-14
|----------------------------------------------------------------
|----------------------------------------------------------------
|----------------------------------------------------------------

|----------------------------------------------------------------
|-13-12-13-12----12----------------------------------------------
|-------------14----14-12-14-12-11-12-11-------------------------
|----------------------------------------14-12-------------------
|----------------------------------------------------------------
|----------------------------------------------------------------

3:42 outro- same f**ked up time signature from the beginning of the song, 
same riff as well, but as with the first verse, it the two measures are switched 
around. the same layering of the two guitars as in the intro is done as well.

|----------------------------------|---------------------|---||
|----------------------------------|---------------------|---||
|----------------------------------|---------------------|-4-||
|------4p2-4p2---4p2---4p2-4p2-----|---------------------|-4-||
|--0-0-----------------------------|-2h3p2p0-3p0-0-0-----|-2-||
|--0-0---------0-----0-------------|---------------------|---||
|
|
|----------------------------------|---------------------|---||
|----------------------------------|---------------------|---||
|----------------------------------|---------------------|-4-||
|------4---------------------------|---------------------|-4-||
|--0-0-5---------------------------|-2h3p2p0-3---0-3p0-3-|-2-||
|--0-0-5---------------------------|-----------5---------|---||


well thats it, if you have questions, corrections, hate mail, whatever 
            
Submit corrections

comments powered by Disqus
↑ Back to top | A Perfect Circle Tabs for Sleeping Beauty. Lyrics for acoustic guitar and electric guitar. Tablatures and chords are parodies/interpretations of the original songs. You may use it for private study, scholarship, research or language learning purposes only