>
 >
Pet 1

Pet 1 Guitar Tabs

A Perfect  Circle - Pet 1 chords, tabs, tablatures, lyrics

Guitar lessons | Add/correct | Request | Top 50 tabs Artists:  A B C D E F G H I J K L M N O P Q R S T U V W X Y Z 0-9

Pet 1 Guitar Tabs – A Perfect Circle

CD, Sheet music, Poster

Do you like Pet 1? Share with your friends now
Bass TabsBass Tabs v2Bass Tabs v3TabsTabs v2Tabs v3
a perfect circle

"pet"



(1.5 steps down) c# 

intro\distortion

1------------------------------------
2------------------------------------
3------------------------------------
4--4-4-4----2-4-4------------2-2-2---
5--4-4-4----2-4-4---2-4/5\4--2-2-2---
6--2-2-2----0-2-2---0-2/3\2--0-0-0---



billy's lead over intro w/ lots of verb and dly

1--10 h 12 p 10 h 12 p 10 h 12 p 10 h 12 p 10--------
2----------------------------------------------11^~ ~ 
3----------------------------------------------------
4----------------------------------------------------
5----------------------------------------------------
6----------------------------------------------------



don't fret precious i'm here...

1------------------------------------ 1--------------------------------------
2------------------------------------ 2--------------------------------------
3------------------------------------ 3--------------------------------------
4--------5-4--------5-4-------------- 4-------5-4--------5-4-----------------    repeat 
5-----4-----------4------------------ 5----4----------4-------------------5-5
6--2------------2---------0---------- 6--2---------2------------0-----3-3----



go back to sleep... (*) notes in parenthesis are harmonized by 2nd guitar

1-----------------------------
2-----------------------------
3-------(9)------(11)---------
4--------9--------11---------6
5-----7--------9---------4----
6--5--------7---------2-------

then the intro/distortion part again.

another soft part



"pay no mind what other voices say"
1--------------------------------------------------------------------------------
2--------------------------------------------------------------------------------
3--------------------------------------------------------------------------------
4---------5--4----------5-4----5-4----------5--4-----------5-4--(5-5 p 4 h 5 p 4)
5-----4--------------4----------------4----------------4---------------5-5----------
6--2--------------2---------0-------2---------------2--------------3-3---------------

								like I do...
1-------------------------------------------------------------------------------
2-------------------------------------------------------------------------------
3-------------------------------------------------------------------------------
4---------5--4----------5-4----5-4----------5--4---------5-4-----------14-------
5-----4--------------4----------------4---------------4------------12-----------
6--2--------------2---------0-------2---------------2----------10---------------


go back to sleep part again only with lead lick on "safe and ignorant"

 "stay with me"				lick  (yummy)
1-----------------------------    1-------------------------
2-----------------------------    2-------------------------
3-------(9)------(11)---------    3-------------9-----------
4--------9--------11---------6    4--11 p 9--7-----11-------
5-----7--------9---------4----    5-------------------------
6--5--------7---------2-------    6-------------------------

right before distortion comes back in

1---------------------------------------
2---------------------------------------
3---------------------------------------
4--5-4--2--5-4--2--5-4--2--5\4\2--------
5---------------------------------------
6---------------------------------------


I'll be the one to protect you from...

1---------------------------------------------------------------------
2---------------------------------------------------------------------
3---------------------------------------------------------------------
4-----11-----11-----11-----11-----11--11-----11-----11-----10---------
5--9------9------9------9------9----------7------7------7-------------
6---------------------------------------------------------------------

play single string or slide the power chords which i like to do

1-------------------------------------
2-------------------------------------
3-------------------------------------
4-----6--12-11-----6--12--11---9----5-
5--4--4--10-9---4--4--10--9----7----5-
6--2------------2-------------------3-


1-------------------------------------
2-------------------------------------
3---------------------------------7---
4-----6--12-11-----6--12--11---9--9---
5--4--4--10-9---4--4--10--9----7------
6--2------------2---------------------


lead w/ wah repeated over previous part
1--------------------------------------------------------------------------
2--10-10-10-10-10---10-10-10-10-10---10-10--9-9-9-9-9--9-9-9-9-9-----------
3--------------------------------------------------------------------------
4--------------------------------------------------------------------------
5--------------------------------------------------------------------------
6--------------------------------------------------------------------------


last part and lead, billy's "solo" 

1-------------------------------------
2-------------------------------------
3-------------------------------------
4--7---9--4---------------------------
5--7---9--4---------------------------
6--5---7--2---------------------------

1--------------------------------------------
2--------------------------------------------
3--------------------------------------------
4--11--9--8~~~~~~11--9--14 p 13-11--9 h 8 p 9
5--------------------------------------------
6--------------------------------------------

1-------------------------------------
2-------------------------------------
3-------------------------------------
4-------------------------------------
5--7 h 9 xxx--12 p 9------------------
6-------------------------------------

thx for listening and reading this. boogey.





Comments


Popular A Perfect Circle tabs & chords
Judith 1 Bass Tabs
Pet 2 Bass Tabs
The Hollow Bass Tabs
Orestes Chords
Orestes 2 Chords
Vanishing Chords
Judith 7 Tabs
Magdalena 1 Tabs
Renholder Tabs
The Outsider 3 Tabs


Song lyrics



↑ Back to top | Tablatures and chords are parodies/interpretations of the original songs. You may use it for private study, scholarship, research or language learning purposes only
© 2014 AZChords.com Contact us | Privacy policy | DMCA | Add/correct tabs | Request tabs | Top 50 tabs