>
 >
Orestes 1

Orestes 1 Guitar Tabs

A Perfect  Circle - Orestes 1 chords, tabs, tablatures, lyrics

Guitar lessons | Add/correct | Request | Top 50 tabs Artists:  A B C D E F G H I J K L M N O P Q R S T U V W X Y Z 0-9

Orestes 1 Guitar Tabs – A Perfect Circle

CD, Sheet music, Poster

Do you like Orestes 1? Share with your friends now
Bass TabsChordsChords v2Chords v3Chords v4Chords v5TabsTabs v2Tabs v3Tabs v4Tabs v5Tabs v6UkuleleUkulele v2
A Perfect Circle
Orestes-Off of Mer De Noms
Tuning EADGBE

Intro/Verse:
|--------------------0--------0--------|
|-----0--------0-----------------------|
|-----------------------6--------6-----| 10X
|--6--------6--------------4--------4--|
|--4-----6--4-----6--5--------5--------|
|--------------------------------------|

|------------------------------------------------|
|-----3---3--------3---3-------3---3-------3---3-|
|---4---4--------4---4-------4---4-------4---4---|
|-2---2--------0---0-----------------------------|
|--------------------------3---3-------3---3-----|
|------------------------------------------------|

Gtr.2
|-------------------------------------------------|
|-------------------------------------------------|
|-9-9-9-9-9-9/7-7-7-7-7-7/5-5-5-5-5-5-5-5-5-5-5-5-|
|-9-9-9-9-9-9/7-7-7-7-7-7/5-5-5-5-5-5-5-5-5-5-5-5-|
|-7-7-7-7-7-7/5-5-5-5-5-5/3-3-3-3-3-3-3-3-3-3-3-3-|
|-------------------------------------------------|

Verse 2- Same as Verse 1 4X

Bridge:
|-----------------------------------------------------------------------------------|
|-16-15/13/12/13/15~~--16-15/13/12/13/15-15-15-15/13/11/8-8-8-10-10-10-12-12-12-15--|
|-----------------------------------------------------------------------------------|
|-----------------------------------------------------------------------------------|
|-----------------------------------------------------------------------------------|
|-----------------------------------------------------------------------------------|

Interlude:
|-------------------------|
|-------------------------|
|-9-9-9-9-9-9/5-5-5-5-5-5-|
|-9-9-9-9-9-9/5-5-5-5-5-5-|
|-7-7-7-7-7-7/3-3-3-3-3-3-|
|-------------------------| x4

Gtr.1
|-------------------------------------------------|
|-------------------------------------------------|
|-9-9-9-9-9-9/7-7-7-7-7-7/5-5-5-5-5-5-5-5-5-5-5-5-|
|-9-9-9-9-9-9/7-7-7-7-7-7/5-5-5-5-5-5-5-5-5-5-5-5-|
|-7-7-7-7-7-7/5-5-5-5-5-5/3-3-3-3-3-3-3-3-3-3-3-3-|
|-------------------------------------------------|

|----------------------------------------------------|
|----------------------------------------------------|
|-9-9-9/12-12-12\7-7-7-7-7-7/5-5-5-5-5-5-5-5-5-5-5-5-|
|-9-9-9/12-12-12\7-7-7-7-7-7/5-5-5-5-5-5-5-5-5-5-5-5-|
|-7-7-7/10-10-10\5-5-5-5-5-5/3-3-3-3-3-3-3-3-3-3-3-3-|
|----------------------------------------------------|

Gtr.2
|-----------------------------------|
|-----5-----------------------------|
|-2h4---4-4p2--0-------0------0-0-2-|
|----------------2-2h4---4-2--------|
|-----------------------------------|
|-----------------------------------|

|-----------------------------------|
|-----5-----------------------------|
|-2h4---4-4p2--0-------0------0-0-0-|
|----------------2-2h4---4-2--------|
|-----------------------------------|
|-----------------------------------|

|---------------------------------|
|-------5-------------------------|
|-0-2h4---4-4p2--0-------0------0-|
|------------------2-2h4---4-2----|
|---------------------------------|
|---------------------------------|

|-------------------------------------------|
|-------------------------------------------|
|-------------------------------------------|
|--2-2-2-2p0-0-0-0--------------------------|
|-------------------4-4-4-4p2-2-2-2p0-------|
|-------------------------------------------|
|-------------------------------------------| 

Before Solo:
|--------------------0--------0--------|
|-----0--------0-----------------------|
|-----------------------6--------6-----| 
|--6--------6--------------4--------4--|
|--4-----6--4-----6--5--------5--------|
|--------------------------------------|

Solo:
|---------------------------------------|
|-/15-15-15h17-17/12-12-12h13p12h13p12--|
|---------------------------------------|
|---------------------------------------|
|---------------------------------------|
|---------------------------------------|

|----------------------------------------|
|-/15-15-15h17-17--17-17-17^-17^-17^-17^-|
|----------------------------------------|
|----------------------------------------|
|----------------------------------------|
|----------------------------------------|
                         grad. bend up  

|--------------------------------------|
|/15-15-15h17-17/12-12-12h13p12h13p12--|
|--------------------------------------|
|--------------------------------------|
|--------------------------------------|
|--------------------------------------|


|------------|
|-12~/10-10--|
|------------|
|------------|
|------------|
|------------|

Second Part:
|---------------------------------|
|---------------------------------|
|-/12-12-12h14-14/9-9-9h10p9h10p9-|
|---------------------------------|
|---------------------------------|
|---------------------------------|

|-----------------------------------------|
|-----------------------------------------|
|-/12-12-12h14-14--14-14-14^-14^-14^-14^--|
|-----------------------------------------|
|-----------------------------------------|
|-----------------------------------------|
                         grad. bend up

|---------------------------------|
|---------------------------------|
|-/12-12-12h14-14/9-9-9h10p9h10p9-|
|---------------------------------|
|---------------------------------|
|---------------------------------|

|---------|
|---------|
|-9~/7-7~-|
|---------|
|---------|
|---------|

After Solo:
|-------|
|-------|
|-------|
|-6-7-9-|
|-6-7-9-|
|-4-5-7-|

Chorus 2:
Gtr.1
|-------------------------------------------------|
|-------------------------------------------------|
|-9-9-9-9-9-9/7-7-7-7-7-7/5-5-5-5-5-5-5-5-5-5-5-5-|
|-9-9-9-9-9-9/7-7-7-7-7-7/5-5-5-5-5-5-5-5-5-5-5-5-|
|-7-7-7-7-7-7/5-5-5-5-5-5/3-3-3-3-3-3-3-3-3-3-3-3-|
|-------------------------------------------------|

|----------------------------------------------------|
|----------------------------------------------------|
|-9-9-9/12-12-12\7-7-7-7-7-7/5-5-5-5-5-5-5-5-5-5-5-5-|
|-9-9-9/12-12-12\7-7-7-7-7-7/5-5-5-5-5-5-5-5-5-5-5-5-|
|-7-7-7/10-10-10\5-5-5-5-5-5/3-3-3-3-3-3-3-3-3-3-3-3-|
|----------------------------------------------------|

Outro:
Gtr.1
|-------------------------------------------------|
|-------------------------------------------------|
|-9-9-9-9-9-9/7-7-7-7-7-7/5-5-5-5-5-5-5-5-5-5-5-5-|
|-9-9-9-9-9-9/7-7-7-7-7-7/5-5-5-5-5-5-5-5-5-5-5-5-|
|-7-7-7-7-7-7/5-5-5-5-5-5/3-3-3-3-3-3-3-3-3-3-3-3-|
|-------------------------------------------------| 

|----------------------------------------------------|
|----------------------------------------------------|
|-9-9-9/12-12-12\7-7-7-7-7-7/5-5-5-5-5-5-5-5-5-5-5-5-|
|-9-9-9/12-12-12\7-7-7-7-7-7/5-5-5-5-5-5-5-5-5-5-5-5-|
|-7-7-7/10-10-10\5-5-5-5-5-5/3-3-3-3-3-3-3-3-3-3-3-3-|
|----------------------------------------------------|

Gtr.2
|-----------------------------------|
|-----5-----------------------------|
|-2h4---4-4p2--0-------0------0-0-2-|
|----------------2-2h4---4-2--------|
|-----------------------------------|
|-----------------------------------|

|-----------------------------------|
|-----5-----------------------------|
|-2h4---4-4p2--0-------0------0-0-0-|
|----------------2-2h4---4-2--------|
|-----------------------------------|
|-----------------------------------|

|-------------------------------|
|-------5-----------------------|
|-0-2h4---4-0----------0------0-|
|-------------0--2-2h4---4-2----|
|-------------------------------|
|-------------------------------|

|-------------------------------------------|
|-------------------------------------------|
|-------------------------------------------|
|--2-2-2-2p0-0-0-0--------------------------|
|-------------------4-4-4-4p2-2-2-2p0-------|
|-------------------------------------------|
|-------------------------------------------| 

That's it.





Comments


Popular A Perfect Circle tabs & chords
3 Libras 1 Bass Tabs
3 Libras 3 Bass Tabs
The Outsider Bass Tabs
The Package 2 Bass Tabs
The Noose Chords
3 Libras Live Tabs
Judith 2 Tabs
Orestes (Solo) Tabs
The Outsider 3 Tabs
The Outsider Ukulele


Song lyrics



↑ Back to top | Tablatures and chords are parodies/interpretations of the original songs. You may use it for private study, scholarship, research or language learning purposes only
© 2014 AZChords.com Contact us | Privacy policy | DMCA | Add/correct tabs | Request tabs | Top 50 tabs