>
 >
Gravity 2

Gravity 2 Bass Tabs

A Perfect  Circle - Gravity 2 chords, tabs, tablatures, lyrics

Guitar lessons | Add/correct | Request | Top 50 tabs Artists:  A B C D E F G H I J K L M N O P Q R S T U V W X Y Z 0-9

Gravity 2 Bass Tabs – A Perfect Circle

CD, Sheet music, Poster

Do you like Gravity 2? Share with your friends now
Bass TabsBass Tabs v2Bass Tabs v3ChordsChords v2Drum TabsTabsUkulele
This is a standard tuning (EADG) version for 4-string bass players who don't want to tune down. Some of the notes here, however, should be played an octave lower so a 5-string bass or an octave pedal would be handy.

Intro to main riff     0:06
-----------
-----------
------2---
-2-4------

Main riff      (x8)
--------------------------------
--------------------------------
-4--4-2-4---4--4-2-4-----2-
------------2-----------2-4---

0:34   
-------------------------------------------------------------
------6-4-6------6-4-6-4---------------------------------
-4-4--------4--4------------4--4-2-4---4--4-2-4-----2-
----------------------------2-----------2-----------2-4----  (x2)

0:47
-4-------7----7----9--9--9--9--4--4-2-4--4--4-2-4------2-
---------------------------------------------2-----------2-4----

1:01
-4---4---4------2---2---2--------------------------------------------
----------------------------------0--0x--0--0--0--0--2--2-2--2--2-

1:14       Back to main riff    (x12)

1:55
-------6-4-6------6-4-6-4--------6-4-6------6-4-6-4---------11-9-11-----11-9-11-9----  \
-4--4--------4--4------------7--7-------7--7-------------9--9----------9--9----------------    \
-----------------------------2----------------------------2----------------------------------2-      |
											    |
--------------------------------------6-4-6------6-4-6-4-------4-2-4-----4-2-4-2---            /
-4--4-2-4---4--4-2-4-----2-4--4--------4--4------------2--2------2--2-------------           >(x2)
------------2-----------2-4-------------------------------2---------------------------2-           \
											   \
--------------------------------								    |
--------------------------------								   /
-----------4------------4------							             /
-2-2-0-2----2-2-0-2----0-2-
The Db's at the end of the above should be an octave lower, but as they are is fine. 							           /	
 										         /

2:43
---------------------------------999-777-666-777-6767---
--5---5---5-5---5---5-5-5-5------------------------------7-

2:50			     x3	
--------------------------------|-------------------------------
--------------------------------|-------------------------------
-4--4-2-4---4--4-2-4-----2-|-4--4-2-4---4x--4x--4-4\---
------------2-----------2-4---|-----------2-------------------

3:03
-0----2----4----6--7--6---4x--4x--4-4/--7----9----11--12--11--9--11--9---4x--4x--4-4\--

--0----2----4---6--7--6------22-------------------------------
----------------------------00------5---5---5---5---4----/10-

3:37			  x7
------------------------------|-------------------------------
-------2---------2-----------|------2---------2-------------
--4-------4-4-------4-4-5--|--4------4-4-------4-4x-4x-
------------------------------|-------------------------------
This above riff should be played an octave lower (except the last 2 Db's), so an octave pedal could be used to make it sound right.

4:04

-------------------------------------4-4--4-4--6-6--7-7-/-9-9-9-9-9---
--2--2-2-2--2-2-2-2-2-2-\-0-0-----------------------------------------

--2-2--4-4--6-6--7-7-/-9-9-9-9-9--------------------------------------------
----------------------------------------2-2--2-2--2-2--2-2-2-2-2-2-2--5----

---2//9-------9\\0-------0//9-------9\\0--------0\\9----------9//12---------





Comments


Popular A Perfect Circle tabs & chords
3 Libras Remix Bass Tabs
Orestes 2 Chords
The Outsider Chords
3 Libras 6 Tabs
By And Down Tabs
Judith 1 Tabs
The Hollow 1 Tabs
Wake The Dead 2 Tabs
3 Libras Ukulele
Imagine Ukulele


Song lyrics



↑ Back to top | Tablatures and chords are parodies/interpretations of the original songs. You may use it for private study, scholarship, research or language learning purposes only
© 2014 AZChords.com Contact us | Privacy policy | DMCA | Add/correct tabs | Request tabs | Top 50 tabs