» » »

A Perfect Circle, Blue Bass tabs (ver.1)

Artists:  A B C D E F G H I J K L M N O P Q R S T U V W X Y Z # 

Blue Bass tabs (ver.1)

A Perfect Circle Tabs
 Rating:
4/5 (4 votes)
Blue lessons Tabs too difficult? Try these video lessons and learn fast
                ----------------------------------------------------------------------------
			     Blue - A Perfect Circle
----------------------------------------------------------------------------

Tuning:Standard

Intro
G|----------------------16----16-------------------------------------------|
D|-15p14-15p14-14-14-14----14----14-14-15p14-15p14-14-14-14-14-14-14-14-14-|
A|-------------------------------------------------------------------------|
E|-------------------------------------------------------------------------|

0:22
G|-------------------------------------------------------------------------|
D|-14-14-14-14-14-14-14-14-14-14-14-14-14-14-14-14-14-14-14-14-14-14-14-14-|
A|-------------------------------------------------------------------------|
E|-------------------------------------------------------------------------|

Chorus 1:10
G|-------------------------------------------------------------------------|
D|---------------------------------------------------------7-7-7-7-7-7-7---|
A|-7-7-7-7-7-7-7-----------------------------7-7-7-7-7-7-7-----------------|
E|---------------5-5-5-5-5-5-5-3-3-3-3-3-3-3-------------------------------|

Verse 1:43
G|----------------------16----16-------------------------------------------|
D|-15p14-15p14-14-14-14----14----14-14-15p14-15p14-14-14-14-14-14-14-14-14-|
A|-------------------------------------------------------------------------|
E|-------------------------------------------------------------------------|

2:04
G|-------------------------------------------------------------------------|
D|-14-14-14-14-14-14-14-14-14-14-14-14-14-14-14-14-14-14-14-14-14-14-14-14-|
A|-------------------------------------------------------------------------|
E|-------------------------------------------------------------------------|

Chorus 2:16
G|-------------------------------------------------------------------------|
D|---------------------------------------------------------7-7-7-7-7-7-7---|
A|-7-7-7-7-7-7-7-----------------------------7-7-7-7-7-7-7-----------------|
E|---------------5-5-5-5-5-5-5-3-3-3-3-3-3-3-------------------------------|

2:37
G|-------------------------------------------------------------------------|
D|-------------------------------------------------------------------------|
A|-7-7-7-7-7-7-7/12-12-12-12-12-12-12/15-15-15-15-15/10-10-10-10-10--------|
E|-------------------------------------------------------------------------|

Rest is pretty much the rest of the riffs

Enjoy! :D


| /  slide up
| \  slide down
| h  hammer-on
| p  pull-off
| ~  vibrato
| +  harmonic
| x  Mute note
============================================================================
            
Submit corrections

comments powered by Disqus
↑ Back to top | A Perfect Circle Bass for Blue. Lyrics for acoustic guitar and electric guitar. Tablatures and chords are parodies/interpretations of the original songs. You may use it for private study, scholarship, research or language learning purposes only