» » »

Blue Tabs (ver.1)

Artists:  A B C D E F G H I J K L M N O P Q R S T U V W X Y Z # 

Blue Tabs (ver.1)

A Perfect Circle
Rating:
0/5 (0 votes)

Hard to play? Try these video lessons and learn fast.
                Band- A Perfect Circle
Song- Blue

Tuning: C# F# B E G# C#


Intro:
Gtr.1 w/chorus, reverb & delay
         |play 12 ½x                                                  |
|--------|-----------------------------|------------------------------|
|--------|-------------------6---------|------------------------------|
|--------|----------------7----7-------|------------------------------|
|---6p5--|--6p5--5-5-5--5---------6p5--|--6p5--5-5-5--5-5-5-5-5--6p5--|
|--------|-----------------------------|------------------------------|
|--------|-----------------------------|------------------------------|
         |Riff A                                            End Riff A|

Fill 1 (0:53)
|-11-10-11-10-11-10-11-10-|
|-------------------------|
|-------------------------|
|-------------------------|
|-------------------------|
|-------------------------|

Fill into Chorus
Gtr.2 w/dist., chorus & reverb
|------------------------8-----|
|------------------------------|
|------------------------------|
|------------------------------|
|------------------------------|
|------------------------------|
|
|------------------------------|
|------------------------------|
|------------------------------|
|--6p5--5-5-5--5-5-5-5-5--5-5--|
|------------------------------|
|------------------------------|

Chorus
|-7-------------------------------|---------------------------------|
|---------------------------------|-8-------------------------------|
|---------------------------------|---------------------------------|
|---------------------------------|---------------------------------|
|---------------------------------|---------------------------------|
|---------------------------------|---------------------------------|
|
|Gtr.3 clean
|---------------------------------|---------------------------------|
|---------------------------------|---------------------------------|
|---------------------------------|---------------------------------|
|---------------------------------|---------------------------------|
|-5-5-5-5-5-5-5-5-5-5-5-5-5-5-5-5-|-3-3-3-3-3-3-3-3-3-3-3-3-3-3-3-3-|
|-3-3-3-3-3-3-3-3-3-3-3-3-3-3-3-3-|-1-1-1-1-1-1-1-1-1-1-1-1-1-1-1-1-|

|-10------------------------------|-(10)--------------------8-------|
|---------------------------------|---------------------------------|
|---------------------------------|---------------------------------|
|---------------------------------|---------------------------------|
|---------------------------------|---------------------------------|
|---------------------------------|---------------------------------|
|
|---------------------------------|---------------------------------|
|---------------------------------|---------------------------------|
|---------------------------------|---------------------------------|
|-3-3-3-3-3-3-3-3-3-3-3-3-3-3-3-3-|-3-3-3-3-3-3-3-3-3-3-3-3-3-3-3-3-|
|-1-1-1-1-1-1-1-1-1-1-1-1-1-1-1-1-|-1-1-1-1-1-1-1-1-1-1-1-1-1-1-1-1-|
|---------------------------------|---------------------------------|

1st Interlude (After 1st Chorus)
                                        fdbk......
|-8----------------|-(8)--------------|-(8)--------------|-(8)--------------|
|------------------|------------------|------------------|------------------|
|------------------|------------------|------------------|------------------|
|------------------|------------------|------------------|------------------|
|------------------|------------------|------------------|------------------|
|------------------|------------------|------------------|------------------|

2nd Interlude (After 2nd Chorus)                   ½
|-(8)--------|-(8)-----8b----------|-7---8p7-8p7--5b--------|-----------------|
|------------|---------------------|------------------------|-----------------|
|------------|---------------------|------------------------|-----------------|
|------------|---------------------|------------------------|-----------------|
|------------|---------------------|------------------------|-----------------|
|------------|---------------------|------------------------|-----------------|

                          ½                     ½
|---8p7--8p7-------|-(7)-5b-----------8p|7--8--5b--------|-----------------|
|------------------|--------------------|----------------|-----------------|
|------------------|--------------------|----------------|-----------------|
|------------------|--------------------|----------------|-----------------|
|------------------|--------------------|----------------|-----------------|
|------------------|--------------------|----------------|-----------------|
There\'s another guitar performing feedback etc. I\'ll get that soon

Outro
Gtr.1 plays Riff A palm muted

Gtr.2 (What I have so far) w/delay
|-/8~~~~------------|-/8--------11\\------|
|-------------------|--------------------|
|-------------------|--------------------|
|-------------------|--------------------|
|-------------------|--------------------|
|-------------------|--------------------|
            
Hard to play? Try these video lessons and learn fast. | Correct




comments powered by Disqus
↑ Back to top | Tablatures and chords are parodies/interpretations of the original songs. You may use it for private study, scholarship, research or language learning purposes only