» » »

Anthony Green, Dear Child Ive Been Dying To Reach You Bass tabs (ver.2)

Artists:  A B C D E F G H I J K L M N O P Q R S T U V W X Y Z # 

Dear Child Ive Been Dying To Reach You Bass tabs (ver.2)

Anthony Green Tabs
 Rating:
4/5 (4 votes)
Dear Child Ive Been Dying To Reach You lessons Tabs too difficult? Try these video lessons and learn fast
1
                Tuning: Standard
PM me for suggestions.

because the only tab is so terrible i need to do this. This isn't not exactly right, he
some small things to embellish notes, this is heading in the right direction though.

INTRO/VERSE
everything until the D string-7th fret (A) is short
G|-------------------------------------|
D|-------------------------------7777--|(hang on this till the repeated verse)
A|12\4444444444444444------------------|
E|----------------------55555555-------|

(Next part is semi-guessed, since he walks it all, just to give you all an idea of the 
that should be played)

VERSE ALTERATION
G|----------------------------------|
D|----4-6---6-4---------------------|
A|4-6-----4-----6------5-7--7-5-----|X2
E|-----------------5-7-----5----7---|

PRECHORUS

G|------------------------|
D|------------------------|
A|------------------------|
E|2~-----5~---------------|

CHORUS

G|----------------------------------------------------------|
D|------------------6-4------------------77777777-----------|
A|7777-7779-4444-4------6-----------------------------------|X2
E|------------------------4444-4434-5555--------------------|

VERSE 2
G|---|--------------------------------------------------------------------|
D|---|--------------------------------------------------------------------|
A|4~-|-444-444-444-444-444-444-444-444------------------------------------|
E|---|---------------------------------555-555-555-555-555-555-555-555----|


PRECHORUS

G|-----------------------|
D|-----------------------|
A|------------7999-7999--|
E|2~-----5~--------------|

CHORUS

G|---------------------------------------------------|
D|------------------6-4-------------------77777777---|
A|7777-7779-4444-4------6----------------------------|X2
E|------------------------4444-4434-5555-------------|

BRIDGE
G|--------------------------------|
D|--------------------------------|
A|444-444-444-----444-444-444-----|
E|------------555-------------555-|

G|-------------------------------------------------------------------|
D|-------------------------------------------------------------------|
A|-------------------------------------------------------------------|
E|44444444-55555555-44444444-5--------17\16\12-----------------------|

INTO CHORUS

G|---------------------------------------|
D|-----------------------------77777777--|
A| REST----4444--------------------------|
E|--------------4444-4434-5555-----------|

OUTRO/CHORUS
(I think he messes around with some notes, it’s still the basic chorus though)

G|-------------------------------------------------|
D|------------------6-4------------------77777777--|
A|7777-7779-4444-4------6--------------------------|
E|------------------------4444-4434-5555-----------|

Continue to play this until it goes back to intro riff
            
Submit corrections

comments powered by Disqus
↑ Back to top | Anthony Green Bass for Dear Child Ive Been Dying To Reach You. Lyrics for acoustic guitar and electric guitar. 1 Tablatures and chords are parodies/interpretations of the original songs. You may use it for private study, scholarship, research or language learning purposes only