» » »

Dear Child Ive Been Dying To Reach You Bass tabs (ver.1)

Artists:  A B C D E F G H I J K L M N O P Q R S T U V W X Y Z # 

Dear Child Ive Been Dying To Reach You Bass tabs (ver.1)

Anthony Green
Rating:
0/5 (0 votes)

Hard to play? Try these video lessons and learn fast.
                ----------------------------------------------------------------------------
         Dear Child( I've Been Dying To Reach You) - Anthony Green
----------------------------------------------------------------------------


Tuning: Standard

Intro:
G|-------------------------------------------------------------------------|
D|-------------------------------------------------------------------------|
A|-------------------------------------------------------------------------|
E|-17/-9-9-9-9-9-9-9-9--5-5-5-5-5--12-12-12-12-12--------------------------|

Verse:
G|----------------------------------------------------------------------|
D|----------------------------------------------------------------------| x4
A|-5-5-5-7-7-7-8-8-8-12-12-12---5-5-5-12-12-12-12-10-10-10-8-8-8--------|
E|----------------------------------------------------------------------|

Pre-Chorus
G|-------------------------------------------------------------------------|
D|-------------------------------------------------------------------------|
A|-------------------------------------------------------------------------|
E|-0~~~~~~~~----5~~~~~~~~~~------------------------------------------------|

Chorus
G|----------------------------------------------------------------------|
D|----------------------------------------------------------------------|
A|-7-7-7-7-7-7-9---4-4-4-4-4-12-11-10-----------------------------------| x2
E|-------------------------------4-4-4-4-4-3-4-5--5-5-5-5-5-12-12-12-12-|

Verse 2:
G|-------------------------------------------------------------------------|
D|-------------------------------------------------------------------------|
A|-4-4-4-4-4-4-4-4-4-4-0-0-0-0-0-0-0-0-0-0-0-------------------------------|
E|-------------------------------------------------------------------------|

Pre-Chorus
Chorus x2
Verse 2

Bridge:
G|----------------------------------------------------------------------|
D|----------------------------------------------------------------------| x2
A|-4-4-4-4-4-4-4-5-5-5-5-5-5-5------------------------------------------|
E|----------------------------------------------------------------------|

Breakdown:
G|-------------------------------------------------------------------------|
D|-(Acoustic First)--------------------------------------------------------|
A|-------------------------------------------------------------------------|
E|------------------4-4-4-4-4-4-3-4-5--5-5-5-5-5-12-12-12-12---------------|

Chorus x2


| /  slide up
| \  slide down
| h  hammer-on
| p  pull-off
| ~  vibrato
| +  harmonic
| x  Mute note
============================================================================
            
Hard to play? Try these video lessons and learn fast. | Correct




comments powered by Disqus
↑ Back to top | Tablatures and chords are parodies/interpretations of the original songs. You may use it for private study, scholarship, research or language learning purposes only