» » »

Dear Child Ive Been Dying To Reach You Tabs (ver.1)

Artists:  A B C D E F G H I J K L M N O P Q R S T U V W X Y Z # 

Dear Child Ive Been Dying To Reach You Tabs (ver.1)

Anthony Green
Rating:
0/5 (0 votes)

Hard to play? Try these video lessons and learn fast.
                I’ve Been Dying To Reach You – Anthony Green

This is the Demo Version not the Studio Version.

Intro:

GUITAR 1: (Clean w/ Delay) (Palm Mute) (Keep Repeating Till Verse Starts)
|-----------------12----------12-----|
|-9-9-9-10-10-10------10—-10---------|
|------------------------------------|
|------------------------------------|
|------------------------------------|
|------------------------------------|

GUITAR 2: (Clean)
|----------------------------------------|
|---5~---------------9~------------------|
|---6~---------------9~------------------|
|---6~---------------9~------------------|
|---4~---------------7~------------------|
|----------------------------------------|

Verse 1: TWO TIMES (2x)
GUITAR 1: (Clean)

Dear Child,           move..        shoes…
|--------------------------------------------------------------------|
|----5~----------------------5~--------------2~----------------2~----|
|----6~----------------------6~--------------2~----------------2~----|
|----6~----------------------6~--------------2~----------------2~----|
|-4--4~-------------------4--4~------------0—0~------------0---0~----|
|--------------------------------------------------------------------|

GUITAR 2: (Clean)(Palm Mute)
|-----------------------------------------------------|
|-----------------------------------------------------|
|-----------------------------------------------------|
|-----------------------------------------------------|
|-4-4-4-4-4-4-4-4-4-4-4-4-4-4-0-0-0-0-0-0-0-0-0-0-0-0-|
|-----------------------------------------------------|


Pre- Verse: No Guitar Playing


Chorus: (Clean) Both Guitars (2x)

|-------------------------------------------------------------------------|
|-------------------------------------------------------------------------|
|-9-9-9-9-9-9-9-9-9-6-6-6-6-6-6-6-6-6-------------------------------------|
|-9-9-9-9-9-9-9-9-9-6-6-6-6-6-6-6-6-6-6-6-6-6-6-6-6-6-6-7-7-7-7-7-7-------|
|-7-7-7-7-7-7-7-7-7-4-4-4-4-4-4-4-4-4-6-6-6-6-6-6-6-6-6-7-7-7-7-7-7-------|
|-------------------------------------4-4-4-4-4-4-4-4-4-5-5-5-5-5-5-------|

After-Chorus: (Clean) Both Guitars

|--------------------------|
|--------------------------|
|--6~~---------------------|
|--6~~---------------------|
|--4~~---------------------|
|--------------------------|

Verse 2: (Clean) (Same Timing as Verse 1)

Guitar 1:
|------------------------------------------------------------|
|----5~----------------------5~--------2~------------2~------|
|----6~----------------------6~--------2~------------2~------|
|----6~----------------------6~--------2~------------2~------|
|-4--4~-------------------4--4~------0—0~-------0---0~-------|
|------------------------------------------------------------|

Guitar 2: (Distorted) (Thanks to hesh_sk8er)
|---------------------------------------|
|---------------------------------------|
|----------------------------------6-4-2|
|-------2h4--------2h4--------2h4-------|
|-4-4-4------4-4-4------4-4-4-----------|
|---------------------------------------|
  * * *      * * *      * * *      * * *

Pre-Chorus: No Guitar Playing
Chorus: (Clean) Both Guitars (2x)

|-------------------------------------------------------------------------|
|-------------------------------------------------------------------------|
|-9-9-9-9-9-9-9-9-9-6-6-6-6-6-6-6-6-6-------------------------------------|
|-9-9-9-9-9-9-9-9-9-6-6-6-6-6-6-6-6-6-6-6-6-6-6-6-6-6-6-7-7-7-7-7-7-------|
|-7-7-7-7-7-7-7-7-7-4-4-4-4-4-4-4-4-4-6-6-6-6-6-6-6-6-6-7-7-7-7-7-7-------|
|-------------------------------------4-4-4-4-4-4-4-4-4-5-5-5-5-5-5-------|

After-Chorus:

Guitar 2: (Distorted)

|---------------------------------------|
|---------------------------------------|
|----------------------------------6-4-2|
|-------2h4--------2h4--------2h4-------|
|-4-4-4------4-4-4------4-4-4-----------|
|---------------------------------------|
  * * *      * * *      * * *      * * *

Bridge: (Clean)

|----------------------------------------------|
|----------------------------------------------|
|----------------------------------------------|
|-6--6--6--6--6--6--6--7--7--7--7--7--7--7--7--|
|-6--6--6--6--6--6--6--7--7--7--7--7--7--7--7--|
|-4--4--4--4--4--4--4--5--5--5--5--5--5--5--5--|

|----------------------------------------------|
|----------------------------------------------|
|----------------------------------------------|
|-6--6--6--6--6--6--6--7--7--7--7--7--7--7--7--|
|-6--6--6--6--6--6--6--7--7--7--7--7--7--7--7--|
|-4--4--4--4--4--4--4--5--5--5--5--5--5--5--5--|


|--------------------|
|--------------------|
|--------------------|
|-----7~~------------|
|-----7~~------------|
|-----5~~------------|

Breakdown: (Clean) Guitar 1:

|-----------------------------------------|
|-----------------------------------------|
|-9-9-9-9-9-9-9-9-9-6-6-6-6-6-6-6-6-6-----|
|-9-9-9-9-9-9-9-9-9-6-6-6-6-6-6-6-6-6-----|
|-7-7-7-7-7-7-7-7-7-4-4-4-4-4-4-4-4-4-----|
|-----------------------------------------|
(Continued)
|-----------------------------------|
|-----------------------------------|
|-----------------------------------|
|-6-6-6-6-6-6-6-6-6-7-7-7-7-7-7-----|
|-6-6-6-6-6-6-6-6-6-7-7-7-7-7-7-----|
|-4-4-4-4-4-4-4-4-4-5-5-5-5-5-5-----|

Chorus: (Clean) Both Guitars (2x)

|-------------------------------------------------------------------|
|-------------------------------------------------------------------|
|-9-9-9-9-9-9-9-9-9-6-6-6-6-6-6-6-6-6-------------------------------|
|-9-9-9-9-9-9-9-9-9-6-6-6-6-6-6-6-6-6-6-6-6-6-6-6-6-6-6-7-7-7-7-7-7-|
|-7-7-7-7-7-7-7-7-7-4-4-4-4-4-4-4-4-4-6-6-6-6-6-6-6-6-6-7-7-7-7-7-7-|
|-------------------------------------4-4-4-4-4-4-4-4-4-5-5-5-5-5-5-|
(Continued)
|-----|
|-----|
|-9~--|
|-9~--|
|-7~--|

Outro:

GUITAR 1: (Clean w/ Delay) (Palm Mute)
|------------------------12----------12-----|
|-9--9---9---10--10--10-------10—-10--------|
|-------------------------------------------|
|-------------------------------------------|
|-------------------------------------------|
|-------------------------------------------|
            
Hard to play? Try these video lessons and learn fast. | Correct




comments powered by Disqus
↑ Back to top | Tablatures and chords are parodies/interpretations of the original songs. You may use it for private study, scholarship, research or language learning purposes only