» » »

Devils Song (This Feels Like A Nightmare) Tabs (ver.1)

Artists:  A B C D E F G H I J K L M N O P Q R S T U V W X Y Z # 

Devils Song (This Feels Like A Nightmare) Tabs (ver.1)

Anthony Green
Rating:
0/5 (0 votes)

Tabs too difficult? Try these video lessons and learn fast.
                
Could be put in a whole step down, but I don't think it changes too much.

The Devil's Song (This Feels Like A Nightmare)
Intro/Chorus
d|------------------55/20------|
a|------5555--------77/00------|
f|------------------77/00------|
c|--22224444-2-2222-xx/22-22---|
g|--22225555-2-2222-------22---|
d|--0000-----0-2222-------00---|

Verse
d|-----------~----------~0~--|
a|-----------~----------~0~--|
f|--555544440~-555544440~2~--|
c|--777755552~-777755552~3~--|
g|--000000002~-000000002~0~--|
d|----------0~---------0~----|

Chorus

Bridge/Outro
d|---0-----0------|
a|---0-----0------|
f|---3-----5------|
c|---5-----7------|
g|---5-----0------|
d|---x-----x------|
"We're all in the same spot..."
            
Tabs too difficult? Try these video lessons and learn fast.


comments powered by Disqus
↑ Back to top | Tablatures and chords are parodies/interpretations of the original songs. You may use it for private study, scholarship, research or language learning purposes only