>
 >
Califone

Califone Guitar Tabs

Anthony Green - Califone chords, tabs, tablatures, lyrics

Guitar lessons | Add/correct | Request | Top 50 tabs Artists:  A B C D E F G H I J K L M N O P Q R S T U V W X Y Z 0-9

Califone Guitar Tabs – Anthony Green

CD, Sheet music, Poster

Do you like Califone? Share with your friends now
ChordsTabsTabs v2Ukulele
-------------------------------------------------------------------------------
                        Califone-Anthony Green
-------------------------------------------------------------------------------

Tuning:Standard (EADGBE)
This song is fairly simple.The only challenge is figuring out the rhythm.

Verse: Come and you will find here.....
e|---8------5------3----0------------------------------------------------------|
B|---10-----6------3----1------------------------------------------------------|
G|---10-----5------5----0------------------------------------------------------|
D|-----------------5----2------------------------------------------------------|
A|-----------------0----0------------------------------------------------------|
E|-----------------------------------------------------------------------------|

Chorus:Califone i love you.... (listen closely here for when to switch chords)

e|------8-------3-----0----5-----1-----------1--------------3----5-----------|
B|------8-------3-----1----6-----1-----5-----1----5----5----3----6-----------|
G|------10------5-----0----5-----2-----7-----2----7----7----5----5-----------|
D|------10------5-----2----------3-----7-----3----7----7----5----------------|
A|--------------0-----0-------------------------------------0----------------|
E|---------------------------------------------------------------------------|


Breakdown after chorus:(here,he plays the same chord with a few variations with the 
put up what i use but there are other ways too.)


e|----5------x------x------x-----0----5---------------|
B|----6------6------6------6-----1----6---------------|
G|----5------5------5------5-----0----5---------------|
D|-----------x------x------x-----2--------------------|
A|-----------3------5------7-----0--------------------|
E|----------------------------------------------------|

After the after chorus breakdown you play the whole thing over.Make sure to listen to 
song while you play!
Kosh H

| /  slide up
| \  slide down
| h  hammer-on
| p  pull-off
| ~  vibrato
| +  harmonic
| x  Mute note
===============================================================================





Comments


Popular Anthony Green tabs & chords
Big Mistake Chords
The First Day Of Work At The Microscope Store Chords
Get Yours While You Can Tabs
I Decide Tabs
Miracle Sun Tabs
She Loves Me So Live Tabs
Stolen Tabs
Stolen 1 Tabs
The First Day Of Work At The Microscope Store Tabs
Dear Child Ive Been Dying To Reach You Ukulele


Song lyrics



↑ Back to top | Tablatures and chords are parodies/interpretations of the original songs. You may use it for private study, scholarship, research or language learning purposes only
© 2014 AZChords.com Contact us | Privacy policy | DMCA | Add/correct tabs | Request tabs | Top 50 tabs