» » »

Califone Tabs (ver.2)

Artists:  A B C D E F G H I J K L M N O P Q R S T U V W X Y Z # 

Califone Tabs (ver.2)

Anthony Green
Rating:
4/5 (2 votes)

Hard to play? Try these video lessons and learn fast.
                
Tuning: DGCFAd

This song is very easy! Four chords and that is all! Listen to the song and play along.. 
always suggest this because it will help you train your ears with hearing the song and 
what is being played. If anything contact me! Enjoy!

These chords are played during the Intro, Verse, & Chorus!
   G  Gmaj7  Em 
d--3--3------3---|
A--3--3------3---|
F--0--0------0---|
C--0--0------x---|
G--2--x------2---|
D--3--2/3/2--0---|

The Lead part is played like this
d--7/10-10-10-12/10-10--10-10h12p10-------------|
A---------------------10------------12-7/8/7----|
F--------------------------------------------7--|
C-----------------------------------------------|
G-----------------------------------------------|
D-----------------------------------------------|
            
Hard to play? Try these video lessons and learn fast. | Correct




comments powered by Disqus
↑ Back to top | Tablatures and chords are parodies/interpretations of the original songs. You may use it for private study, scholarship, research or language learning purposes only