» » »

Fuck Me Pumps Tabs (ver.1)

Artists:  A B C D E F G H I J K L M N O P Q R S T U V W X Y Z # 

Fuck Me Pumps Tabs (ver.1)

Amy Winehouse
Rating:
0/5 (0 votes)

Hard to play? Try these video lessons and learn fast.
                ***Cheers to clUmSy for setting me on the way. nice easy song.***

Most important bit is nailing positioning for the verse chords. They aren't full, but 
is all the guitar plays on the song. Follow this pattern for the verse:

----Bsus4--Bm7--Dm--Fm6---C---Bm---G--------------|
E----12----10---10---8----8---10---10-------------|
B----12----12---10---9----8---12---12-------------|
G----11----11---10---10---9---11---12-------------|
D-----x-----x---x----x----x---x----x--------------|
A-----x-----x---x----x----x---x----x--------------|
E-----x-----x---x----x----x---x----x--------------|


Then for the chorus ("You don't like players...") just use bar chords. Be creative in 
slow, sweeped picking of these:

-----Am--D---G---C-----------|
E----5---5---3---3-----------|
B----5---7---3---5-----------|
G----5---7---4---5-----------|
D----7---7---5---5-----------|
A----7---5---5---3-----------|
E----5---x---3---x-----------|


TADA! Please comment if you use!
            
Hard to play? Try these video lessons and learn fast. | Correct




comments powered by Disqus
↑ Back to top | Tablatures and chords are parodies/interpretations of the original songs. You may use it for private study, scholarship, research or language learning purposes only