» » »

Amy Winehouse, Mr Magic Tabs (ver.1)

Artists:  A B C D E F G H I J K L M N O P Q R S T U V W X Y Z # 

Mr Magic Tabs (ver.1)

Amy Winehouse Tabs
Rating:
0/5 (0 votes)
Mr Magic lessons Tabs too difficult? Try these video lessons and learn fast
                chords are strummed.......

INTRO
     Dm9    F13
e|----------3--3---|
B|---3--3---3--3---|
G|---3--3---2--2---| 4x
D|---1--1---1--1---|
A|---3--3----------|
E|-----------------|


VERSE:
     Dm9    F13    Ab  G7  Dm7   Bbm7  Eb7 Abmaj7  G7#5  Dm9    F13
e|----------3-3-------------3----------------3------3-----------3-3----|
B|--3--3----3-3----4----3---4-----6-----4----4------4----3-3----3-3----|
G|--3--3----2-2----5----4---3-----6-----6----5------4----3-3----2-2----|
D|--1--1----1-1----6----3---5-----6-----5----6------3----1-1----1-1----|
A|--3--3-----------6----5---3-----------6----------------3-3-----------|
E|--------------------------------6------------------------------------|

CHORUS:
   Ebmaj7 Abmaj7 Ebmaj7 Abmaj7 G7#5 Dm9    F13
e|---3------3-----3-------3----3-----------3-3--------|
B|---3------4-----3-------4----4----3-3----3-3--------|
G|---3------5-----3-------5----4----3-3----2-2--------|
D|---5------6-----5-------6----3----1-1----1-1--------|
A|---6------------6-----------------3-3---------------|
E|----------------------------------------------------|
            
Submit corrections

comments powered by Disqus
↑ Back to top | Amy Winehouse Tabs for Mr Magic. Lyrics for acoustic guitar and electric guitar. Tablatures and chords are parodies/interpretations of the original songs. You may use it for private study, scholarship, research or language learning purposes only