>
 >
Wake Up Alone

Wake Up Alone Guitar Tabs

Amy Winehouse - Wake Up Alone chords, tabs, tablatures, lyrics

Guitar lessons | Add/correct | Request | Top 50 tabs Artists:  A B C D E F G H I J K L M N O P Q R S T U V W X Y Z 0-9

Wake Up Alone Guitar Tabs – Amy Winehouse

CD, Sheet music, Poster

Do you like Wake Up Alone? Share with your friends now
ChordsChords v2TabsUkulele
    _________________
   / Amy Winehouse  /  In every aspect this is a typical Winehouse song.
  / Wake Up Alone  /  A horrifyingly depressive poem about a lonely housewife
 / Back to Black  /  (or a lonely widow?). 
/________________/


As usual there are two guitar tracks.

 GUITAR 1
************
Firstly, this is the electric guitar playing the arpeggios.
This is panned in the left side:


 Intro:
 12/8
  A                         G#
|-------------------------|-------------------------|
|-------------------------|-------------------------|
|-------6-----------6-----|-------5-----------5-----|
|-----7---7-------7---7---|-----6---6-------6---6---|
|---7-------7---7-------7-|---6-------6---6-------6-|
|-5-----------5-----------|-4-----------4-----------|

  C#m                       C
|-------------------------|-----------------------------|
|-------------------------|-----------------------------|
|-------9-----------9-----|-------9---------------------|
|----11--11------11--11---|----10--10------------10-----|
|--11------11--11------11-|--10------10--------10--10---|
|/9-----------9-----------|-8-----------8-10/12------12-|

  Emaj7                     C#m
|-------------------------|-----------------------------|
|-------9-----------9-----|---------------9-------------|
|-----8---8-------8---8---|-------9-------9h11-9--------|
|---9-------9---9-------9-|----11--11-------------------|
|/7-----------7-----------|--11------11------------11---|
|-------------------------|-9-----------9-------------9-|

  C                         F#m         F
|-------------------------|-------------------------|
|-------------------------|-------------------------|
|-------9-----------9-----|-------2-----------2-----|
|----10--10------10--10---|-----4---4-------3---3---|
|--10------10--10---------|---4-------4---3-------3-|
|-8-----------8---------8\|-2-----------1-----------|




 A1: 2x Intro round



 B1:
    Dsus4       D             G           E7b9         3x
||--------------------------|--------------------------||
||o-------8-----------7-----|-------------------6-----o||
||------7---7-------7---7---|-------4---------7---7----||
||----7-------7---7-------7-|-----5---5-----6-------6--||
||o-5-----------5-----------|---5-------5-7-----------o||
||--------------------------|-3------------------------||

  C           Bm            Ebmaj9
|-------------------------|-------------------------|
|-------------------------|-8^----------------------|
|-------9-----------7-----|-7^----------------------|
|----10--10-------9---9---|-8^----------------------|
|--10------10---9-------9-|-6^----------------------|
|-8-----------7-----------|-------------------------|



 A2: 2x Intro round

There is a wonderful variation on the first Emaj7 here:
  Emaj7
|---------------9-7-------|
|---------7-9-7-----9-----|
|-----8---------------8---|
|---9-------------------9-|
|-7-----------------------|
|-------------------------|



 B2:
    Dsus4       D             G           E7b9         3x
||--------------------------|--------------------------||
||o-------8-----------7-----|-------------------6-----o||
||------7---7-------7---7---|-------4---------7---7----||
||----7-------7---7-------7-|-----5---5-----6-------6--||
||o-5-----------5-----------|---5-------5-7-----------o||
||--------------------------|-3------------------------||

  C           Bm            Ebmaj9
|-------------------------|---------------8-6-------|
|-------------------------|-------8-------6-6-8-----|
|-------9-----------7-----|-----7-------------------|
|----10--10-------9---9---|---8-----------------8---|
|--10------10---9-------9-|-6-----------------------|
|-8-----------7-----------|-------------------------|

  C           Bm            Ebmaj7
|-------------------------|---6-6--6-6----10-10--10-10-|
|-------------------------|---8-8--8-8----11-11--11-11-|
|-------9-----------7-----|---7-7--7-7-----------------|
|----10--10-------9---9---|----------------------------|
|--10------10---9-------9-|-6--------------------------|
|-8-----------7-----------|----------------------------|

  C           Bm7           Ebmaj7
|-------------------------|-------6-------6-6---6-6--|
|-------------------------|-------8-------8-8---8-8--|
|----10-9-------7---------|-------7-------7-7---7-7--|
|--------10-----7---------|---8----------------------|
|--10------10---9---------|-6------------------------|
|-8-----------7-----------|--------------------------|

  C           Bm            Ebmaj7
|-------------------------|-10----------------------:
|-------------------------|---11--------------------:
|-------9-----------7-----|-----12------------------:
|----10--10-------9-------|-------13----------------:
|--10------10---9---------|-------------------------:
|-8-----------7-----------|-------------------------:




 GUITAR 2
************
Secondly, this is the heavily reverbed electric guitar panned in the right side.
The chords are strummed staccato, for the reverb to ring out clearly.


 Intro:
  A                         G#
  1 + + 2 + + 3 + + 4 + +   1 + + 2 + + 3 + + 4 + +
|-------5-----------5-----|-------4-----------4-----|
|-------5-----------5-----|-------4-----------4-----|
|-------6-----------6-----|-------5-----------5-----|
|-------------------------|-------------------------|
|-------------------------|-------------------------|
|-------------------------|-------------------------|

  C#m7                      C
|-------4-----------4-----|-------3------------3-----|
|-------5-----------5-----|-------5------------5-----|
|-------4-----------4-----|-------5------------5-----|
|-------------------------|--------------------------|
|-------------------------|--------------------------|
|-------------------------|--------------------------|

  Emaj7                     C#m7
|-------7-----------7-----|-------4------------4-----|
|-------9-----------9-----|-------5------------5-----|
|-------8-----------8-----|-------4------------4-----|
|-------------------------|--------------------------|
|-------------------------|--------------------------|
|-------------------------|--------------------------|

  C                         F#m         F
|-------3-----------3-----|-------2-----------1-----|
|-------5-----------5-----|-------2-----------1-----|
|-------5-----------5-----|-------2-----------2-----|
|-------------------------|-------------------------|
|-------------------------|-------------------------|
|-------------------------|-------------------------|



 A1: 2x Intro round



 B1:
    Dsus4       D6            G           E7b9         3x
||-------10----------10-----|-------7-----------7------||
||o------10----------12-----|-------8-----------6-----o||
||-------12----------11-----|-------7-----------7------||
||--------------------------|--------------------------||
||o-------------------------|-------------------------o||
||--------------------------|--------------------------||

  C           Bm            Ebmaj9
|-------0-----------2-----|-------------------------|
|-------1-----------3-----|-------------------------|
|-------0-----------4-----|-------------------------|
|-------------------------|-------------------------|
|-------------------------|-------------------------|
|-------------------------|-------------------------|



 A2: 2x Intro round



 B2:
    Dsus4       D6            G           E7b9         3x
||-------10----------10-----|-------7-----------7------||
||o------10----------12-----|-------8-----------6-----o||
||-------12----------11-----|-------7-----------7------||
||--------------------------|--------------------------||
||o-------------------------|-------------------------o||
||--------------------------|--------------------------||

  C6          Bm            Ebmaj7
|-------5-----------2-----|-------6-----------6-----|
|-------5-----------3-----|-------8-----------8-----|
|-------5-----------4-----|-------7-----------7-----|
|-------------------------|-------------------------|
|-------------------------|-------------------------|
|-------------------------|-------------------------|

  C           Bm            Ebmaj7
|-------3-----------2-----|-------6-----------6-----|
|-------5-----------3-----|-------8-----------8-----|
|-------5-----------4-----|-------7-----------7-----|
|-------------------------|-------------------------|
|-------------------------|-------------------------|
|-------------------------|-------------------------|

  C           Bm            Ebmaj7
|-------3-----------2-----|-------6-----------6-----|
|-------5-----------3-----|-------8-----------8-----|
|-------5-----------4-----|-------7-----------7-----|
|-------------------------|-------------------------|
|-------------------------|-------------------------|
|-------------------------|-------------------------|

  C           Bm            Ebmaj7
|-------3-----------2-----|-6^----------------------:
|-------5-----------3-----|-8^----------------------:
|-------5-----------4-----|-7^----------------------:
|-------------------------|-------------------------:
|-------------------------|-------------------------:
|-------------------------|-------------------------:




 LYRICS
**********
It's ok in the day,
I'm staying busy
Tied up enough so I don't have to wonder where is he,
Got so sick of crying,
So just lately,
When I catch myself I do a 180
I stay up clean the house; at least I'm not drinking,
Run around just so I don't have to think about thinking,
That silent sense of content that everyone gets,
Just disappears as soon as the sun sets,

He gets fierce in my dreams seizing my guts,
He floors me with dread,
Soaked to soul he swims in my eyes by the bed,
Pour myself over him,
Moon spilling in,
And I wake up alone,

If I was my heart,
I'd rather be restless,
Second I stop the sleep catches up and I'm breathless,
This ache in my chest,
'Cause my day is done now,
The dark covers me and I cannot run now
My blood running cold,
I stand before him,
It's all I can do to assure him,
When he comes to me,
I drip for him tonight,
Drowning in me we bathe under blue light,

He gets fierce in my dreams seizing my guts,
He floods me with dread,
Soaked to soul he swims in my eyes by the bed,
Pour myself over him,
Moon spilling in,
And I wake up alone,
And I wake up alone,
And I wake up alone,
And I wake up alone.


+--------------------------------------------------------------------------+
Jon Sebastian Frederiksen - 13th /September /10





Comments


Popular Amy Winehouse tabs & chords
Back To Black Chords
Back To Black 3 Chords
Between The Cheats 1 Chords
He Can Only Hold Her 1 Chords
Help Yourself Chords
Love Is A Losing Game Chords
Valerie 2 Chords
You Know Im No Good 2 Chords
In My Bed Ukulele
There Is No Greater Love Ukulele


Song lyrics



↑ Back to top | Tablatures and chords are parodies/interpretations of the original songs. You may use it for private study, scholarship, research or language learning purposes only
© 2014 AZChords.com Contact us | Privacy policy | DMCA | Add/correct tabs | Request tabs | Top 50 tabs