» » »

Back To Black Tabs (ver.1)

Artists:  A B C D E F G H I J K L M N O P Q R S T U V W X Y Z # 

Back To Black Tabs (ver.1)

Amy Winehouse
Rating:
3/5 (4 votes)

Tabs too difficult? Try these video lessons and learn fast.
                -------------------------------------------------------------------------------
-------------------------------------------------------------------------------

Tuning:standard E,A,D,G,B,e

This is how i play it i do it on an acousitc guitar if that makes any difference

The chords are the same all the way trough for verse and chorus
-
e|-5------5---------3------3--------6-------6--------------------------------|
B|-6--------6-------3--------3------6--------6-------------------------------|
G|-7-77-7------5----3---------------7----------------------------------------|
D|-7-77-7------5----5-55-5-----7----8-88-8----10\7-77-77--5-3-2--------------|
A|-5-55-5------3----5-55-5-----7----8-88-8----10\7-77-77--5-3-2--------------|
E|------------------3-33-3-----5----6-66-6-----8\5-55-55--3-1-0--------------|

For the middle bit where it all breaks down just use the root notes for power chords and 


| /  slide up
| \  slide down
| h  hammer-on
| p  pull-off
| ~  vibrato
| +  harmonic
| x  Mute note
===============================================================================
            
Tabs too difficult? Try these video lessons and learn fast.


comments powered by Disqus
↑ Back to top | Tablatures and chords are parodies/interpretations of the original songs. You may use it for private study, scholarship, research or language learning purposes only