» » »

Aerosmith, Come Together Bass tabs (ver.3)

Artists:  A B C D E F G H I J K L M N O P Q R S T U V W X Y Z # 

Come Together Bass tabs (ver.3)

Aerosmith Tabs
 Rating:
4/5 (4 votes)
Come Together lessons Tabs too difficult? Try these video lessons and learn fast
                Bass tab to Come together by Aerosmith.

             Riff 1
g|-----------10---|
d|--------12----12|
a|------12--------|  
e|10-10-----------|

             Riff 2
g|-------5--|
d|-----7---7|
a|----7-----|
e|5-5-------|

Chorus:
g|------------------------|
d|------------------------|
a|33333300----------------|
e|--------3333/5----------|

Song Structure
riff 1 x7
riff 2 x 2
play low g
riff 1 x7
riff 2 x2
chorus
riff 1 x7
riff 2 x2
chorus
riff 1 x7
riff 2 x4
riff 1 x6
riff 2 x2
chorus
riff 1 for the rest of song
            
Submit corrections

comments powered by Disqus
↑ Back to top | Aerosmith Bass for Come Together. Lyrics for acoustic guitar and electric guitar. Tablatures and chords are parodies/interpretations of the original songs. You may use it for private study, scholarship, research or language learning purposes only