» » »

Come Together Bass tabs (ver.1)

Artists:  A B C D E F G H I J K L M N O P Q R S T U V W X Y Z # 

Come Together Bass tabs (ver.1)

Aerosmith
Rating:
0/5 (0 votes)

Hard to play? Try these video lessons and learn fast.
                Groove
G-----------------10-----
D--------------------12--
A---------10h12----------
E--10-10-----------------


Verse1
G-----------------------
D-----------------------
A--5-5--8-8--5-5--------
E----------------5-8----

Verse2
G-------------------------
D----------2-2-4-2--------
A--0-0-3-4----------------
E-------------------------

Verse end
G------------------
D------------------
A------------------
E—3d-------------

Refrain
G-----------------------------------
D-----------------------------------
A--2-2-2-2-2-2-0-0------------------
E--------------------3-3-3-3-5d-----

Interlude
G------------------------
D-------3-3--------------
A--5--------------3------
E------------------------

Roll in
G---------------------------------------------------
D---------3h5p3-------3-5-3-5-5-3-------------------
A-----3h5-------5-3-5-------------5-3---------------
E—3h5-----------------------------------------------


Groove x4
Verse1 x4
Verse2 x2
Verse end x1
Groove x4
Verse1 x4
Verse2 x2
Verse end x1
Refrain x1 
Groove x4
Verse1 x4
Verse2 x2
Verse end x1
Refrain x1
Groove x4
Verse1 x4
Verse2 x4
Interlude x1
Roll in x1
Groove x4
Verse1 x4
Verse2 x2
Verse end x1
Refrain x1
Groove x4
Roll in ??
            
Hard to play? Try these video lessons and learn fast. | Correct




comments powered by Disqus
↑ Back to top | Tablatures and chords are parodies/interpretations of the original songs. You may use it for private study, scholarship, research or language learning purposes only