» » »

Aerosmith, Come Together Tabs (ver.3)

Artists:  A B C D E F G H I J K L M N O P Q R S T U V W X Y Z # 

Come Together Tabs (ver.3)

Aerosmith Tabs
Rating:
0/5 (0 votes)
Come Together lessons Tabs too difficult? Try these video lessons and learn fast
                ----------------------------------------------------------------------------
                           Come Together- Aerosmith
----------------------------------------------------------------------------


Tuning: e,B,G,D,A,E

Intro/Riff
e|-----------------------------------------------------------------|
B|----------6----------------6----------------6----------------6---|
G|----------5----------------5----------------5----------------5---|
D|------5h7--------------5h7--------------5h7--------------5h7-----|
A|-5--5-------------5--5-------------5--5-------------5--5---------|
E|-----------------------------------------------------------------|

Verse
e|-----------------------------------------------------------------|
B|-----------------------------------------------------------------|
G|-----------------------------------------------------------------|
D|-7-7-9-9-7-7-9-9-7-7-9-9-7-7-9-9-7-7-9-9-7-7-9-9-7-7-9-9-7-7-9-9-|
A|-5-5-5-5-5-5-5-5-5-5-5-5-5-5-5-5-5-5-5-5-5-5-5-5-5-5-5-5-5-5-5-5-|
E|-----------------------------------------------------------------|

e|-----------------------------------------------------------------|
B|-----------------------------------------------------------------|
G|-----------------------------------------------------------------|
D|-----------------------------------------------------------------|
A|-7-7-9-9-7-7-9-9-7-7-9-9-7-7-9-9--5------------------------------|
E|-5-5-5-5-5-5-5-5-5-5-5-5-5-5-5-5--3------------------------------|

Riff
e|-----------------------------------------------------------------|
B|----------6----------------6----------------6----------------6---|
G|----------5----------------5----------------5----------------5---|
D|------5h7--------------5h7--------------5h7--------------5h7-----|
A|-5--5-------------5--5-------------5--5-------------5--5---------|
E|-----------------------------------------------------------------|

Verse
e|-----------------------------------------------------------------|
B|-----------------------------------------------------------------|
G|-----------------------------------------------------------------|
D|-7-7-9-9-7-7-9-9-7-7-9-9-7-7-9-9-7-7-9-9-7-7-9-9-7-7-9-9-7-7-9-9-|
A|-5-5-5-5-5-5-5-5-5-5-5-5-5-5-5-5-5-5-5-5-5-5-5-5-5-5-5-5-5-5-5-5-|
E|-----------------------------------------------------------------|

e|-----------------------------------------------------------------|
B|-----------------------------------------------------------------|
G|-----------------------------------------------------------------|
D|--------------------------------------------3p2p1p0--------------|
A|-7-7-9-9-7-7-9-9-7-7-9-9-7-7-9-9--5------------------1-----------|
E|-5-5-5-5-5-5-5-5-5-5-5-5-5-5-5-5--3------------------------------|

Chorus
e|-----------------------------------------------------------------|
B|-----------------------------------------------------------------|
G|-----------------------------------------------------------------|
D|--9-9-9-9-9-9-7-7-5-5-5-5-7--------------------------------------|
A|--9-9-9-9-9-9-7-7-5-5-5-5-7--------------------------------------|
E|--7-7-7-7-7-7-5-5-3-3-3-3-5--------------------------------------|

Riff
e|-----------------------------------------------------------------|
B|----------6----------------6----------------6----------------6---|
G|----------5----------------5----------------5----------------5---|
D|------5h7--------------5h7--------------5h7--------------5h7-----|
A|-5--5-------------5--5-------------5--5-------------5--5---------|
E|-----------------------------------------------------------------|

Verse
e|-----------------------------------------------------------------|
B|-----------------------------------------------------------------|
G|-----------------------------------------------------------------|
D|-7-7-9-9-7-7-9-9-7-7-9-9-7-7-9-9-7-7-9-9-7-7-9-9-7-7-9-9-7-7-9-9-|
A|-5-5-5-5-5-5-5-5-5-5-5-5-5-5-5-5-5-5-5-5-5-5-5-5-5-5-5-5-5-5-5-5-|
E|-----------------------------------------------------------------|

e|-----------------------------------------------------------------|
B|-----------------------------------------------------------------|
G|-----------------------------------------------------------------|
D|--------------------------------------------3p2p1p0--------------|
A|-7-7-9-9-7-7-9-9-7-7-9-9-7-7-9-9--5------------------1-----------|
E|-5-5-5-5-5-5-5-5-5-5-5-5-5-5-5-5--3------------------------------|

Chorus
e|-----------------------------------------------------------------|
B|-----------------------------------------------------------------|
G|-----------------------------------------------------------------|
D|--9-9-9-9-9-9-7-7-5-5-5-5-7--------------------------------------|
A|--9-9-9-9-9-9-7-7-5-5-5-5-7--------------------------------------|
E|--7-7-7-7-7-7-5-5-3-3-3-3-5--------------------------------------|

Riff
e|-----------------------------------------------------------------|
B|----------6----------------6----------------6----------------6---|
G|----------5----------------5----------------5----------------5---|
D|------5h7--------------5h7--------------5h7--------------5h7-----|
A|-5--5-------------5--5-------------5--5-------------5--5---------|
E|-----------------------------------------------------------------|

Solo 
e|-----------------------------|-----------------------------------|
B|----------6----------------6-|-6--6-------6--10--6-----6--10--6--|
G|----------5----------------5-|-7--7--7----7------7--7--7------7--|
D|------5h7--------------5h7---|-------7---------------------------|
A|-5--5-------------5--5-------|-----------------------------------|
E|-----------------------------|-----------------------------------|

e|-----------------------------------------------------------------|
B|-----6-----------------------------------------------------------|
G|--7--7------------------------------------------5-----5-----5----|
D|------------7----7--5-----5------------------7-----7-----7-------|
A|-----------------------8-----8--5--------5-----------------------|
E|-------------------------------------8---------------------------|

e|--5----------5----------5----------5---------5--5-5--5-5---------|
B|--5----------5----------5----------5---------5--5-5--5-5---------|
G|-----7p5--------7p5--------7p5--------7p5-----------------7p5----|
D|----------7----------7----------7----------7-------------------7-|
A|-----------------------------------------------------------------|
E|-----------------------------------------------------------------|

e|--5----------5--------------------------------------8------------|
B|--5----------5------------8---10--8--10--8--10--10-----10---8----|
G|-----7p5--------7p5-------7----9--7---9--7---9---9---------------|
D|----------7----------7-------------------------------------------|
A|-----------------------------------------------------------------|
E|-----------------------------------------------------------------|

e|-----------------------------------------------------------------|
B|----------6---------1--------------------------------------------|
G|----------5------2--2---2---4---4--------------------------------|
D|------5h7--------0------0---5---5--------------------------------|
A|-5--5------------------------------------------------------------|
E|-----------------------------------------------------------------|

Verse
e|-----------------------------------------------------------------|
B|-----------------------------------------------------------------|
G|-----------------------------------------------------------------|
D|-7-7-9-9-7-7-9-9-7-7-9-9-7-7-9-9-7-7-9-9-7-7-9-9-7-7-9-9-7-7-9-9-|
A|-5-5-5-5-5-5-5-5-5-5-5-5-5-5-5-5-5-5-5-5-5-5-5-5-5-5-5-5-5-5-5-5-|
E|-----------------------------------------------------------------|

e|-----------------------------------------------------------------|
B|-----------------------------------------------------------------|
G|-----------------------------------------------------------------|
D|-----------------------------------------------------------------|
A|-7-7-9-9-7-7-9-9-7-7-9-9-7-7-9-9--5------------------------------|
E|-5-5-5-5-5-5-5-5-5-5-5-5-5-5-5-5--3------------------------------|

Chorus
e|-----------------------------------------------------------------|
B|-----------------------------------------------------------------|
G|-----------------------------------------------------------------|
D|--9-9-9-9-9-9-7-7-5-5-5-5-7--------------------------------------|
A|--9-9-9-9-9-9-7-7-5-5-5-5-7--------------------------------------|
E|--7-7-7-7-7-7-5-5-3-3-3-3-5--------------------------------------|

Riff
e|-----------------------------------------------------------------|
B|----------6----------------6----------------6----------------6---|
G|----------5----------------5----------------5----------------5---|
D|------5h7--------------5h7--------------5h7--------------5h7-----|
A|-5--5--------5----5--5--------5----5--5--------5----5--5-------5-|
E|-----------------------------------------------------------------|

Outro Solo





| /  slide up
| \  slide down
| h  hammer-on
| p  pull-off
| ~  vibrato
| +  harmonic
| x  Mute note
============================================================================
            
Submit corrections

comments powered by Disqus
↑ Back to top | Aerosmith Tabs for Come Together. Lyrics for acoustic guitar and electric guitar. Tablatures and chords are parodies/interpretations of the original songs. You may use it for private study, scholarship, research or language learning purposes only