>
 >
England 2

England 2 Guitar Tabs

Adicts - England 2 chords, tabs, tablatures, lyrics

Guitar lessons | Add/correct | Request | Top 50 tabs Artists:  A B C D E F G H I J K L M N O P Q R S T U V W X Y Z 0-9

England 2 Guitar Tabs – Adicts

CD, Sheet music, Poster

Do you like England 2? Share with your friends now
Bass TabsTabsTabs v2Tabs v3
here goes nothing

e|---------------------------|
B|---------------------------|
G|-12--12---10--10----------|
D|-12--12---10--10----------|
A|-10--10----8---8----------|
E|---------------------------|

e|-------------------------------------------------------------|
B|-------------------------------------------------------------|
G|--8-8-8---------8-8-8---------8-8-8--------------------------|
D|--8-8-8--8-8-8--8-8-8--8-8-8--8-8-8--8-8-8----5-5-5-3--------|X2
A|--6-6-6--8-8-8--6-6-6--8-8-8--6-6-6--8-8-8----5-5-5-3--------|
E|---------6-6-6---------6-6-6---------6-6-6----3-3-3-1--------|

YOU PLAY THESE NOTES MUTED
e|-------------------------------------------------------------|
B|-------------------------------------------------------------|
G|--8-8-8---------8-8-8---------8-8-8--------------------------|
D|--8-8-8--8-8-8--8-8-8--8-8-8--8-8-8--8-8-8----5-5-5----------|X2
A|--6-6-6--8-8-8--6-6-6--8-8-8--6-6-6--8-8-8----5-5-5----------|
E|---------6-6-6---------6-6-6---------6-6-6----3-3-3----------|

e|-------------------------------------------------------------|
B|-------------------------------------------------------------|
G|------------6-6-6-6-------------6-6-8------------------------|
D|--3-3-3-3---6-6-6-4---3-3-3-3---6-6-8------------------------|
A|--3-3-3-3---4-4-4-4---3-3-3-3---4-4-6------------------------|
E|--1-1-1-1-------------1-1-1-1--------------------------------|

YOU THEN PLAY THE FIRST TWO PARTS AGAIN

e|---------------|
B|---------------|
G|--8-8-8--------| YOU LET RING OUT
D|--8-8-8--------| AND THEN ON THE SECOND TIME
A|--6-6-6--------|YOU DO A PICK SLIDE
E|---------------|

e|-------------------------------------------------------------|
B|-------------------------------------------------------------|
G|------------6-6-6-6-------------6-6-8------------------------|
D|--3-3-3-3---6-6-6-4---3-3-3-3---6-6-8------------------------|X2
A|--3-3-3-3---4-4-4-4---3-3-3-3---4-4-6------------------------|
E|--1-1-1-1-------------1-1-1-1--------------------------------|

PLAY MUTED
e|-------------------------------------------------------------|
B|-------------------------------------------------------------|
G|--10-10-10-10---------------10-10-10-10--8-8--6-6------------|
D|--10-10-10-10--11-11-11-11--10-10-10-10--8-8--6-6------------|
A|--8--8--8--8---11-11-11-11---8--8--8--8--6-6--4-4------------|
E|----------------9--9--9--9-----------------------------------|

e|-------------------------------------------------------------|
B|-------------------------------------------------------------|
G|-10-10-10-10--------------10-10-10-10-8-8--6-6---------------|
D|-10-10-10-10-11-11-11-11--10-10-10-10-8-8--6-6-8-8-8--8b-----|
A|-8--8--8--8--11-11-11-11--8--8--8--8--6-6--4-4-8-8-8---------|
E|-------------9--9--9--9------------------------6-6-6---------|

AND THEN YOU JUST PLAY THE BEGINNING AGAIN AND THAT IS IT





Comments


Popular Adicts tabs & chords
England Bass Tabs
Too Young Bass Tabs
Come Along Tabs
Eyes In The Back Of Your Head 1 Tabs
Give It To Me Baby Im Addicted To You Tabs
Jellybabie Tabs
Songs Of Praise Tabs
Who Spilt My Beer Intro Tabs
Easy Way Out Ukulele
Get Adicted Ukulele


Song lyrics



↑ Back to top | Tablatures and chords are parodies/interpretations of the original songs. You may use it for private study, scholarship, research or language learning purposes only
© 2014 AZChords.com Contact us | Privacy policy | DMCA | Add/correct tabs | Request tabs | Top 50 tabs