» » »

England Tabs (ver.2)

Artists:  A B C D E F G H I J K L M N O P Q R S T U V W X Y Z # 

England Tabs (ver.2)

Adicts
Rating:
0/5 (0 votes)

Hard to play? Try these video lessons and learn fast.
                England

The adicts-england


Piano then guitar does
Intro

e---------------------------------------------------------------------|
B---------------------------------------------------------------------|
G—-12--12------10--10----------8---------8-8-------8-8----------------|
D—-12--12------10--10----------8----8-8--8-8--8-8--8-8--8-8-----------|X2
A—-10--10------8----8----------6----8-8--6-6--8-8--6-6--8-8-----------|
E-----------------------------------6-6-------6-6-------6-6-----------|

e---------------------------------------------------------------------|
B---------------------------------------------------------------------|
G----8--------8-8-------8-8---------12--12-----10--10-----------------|
D----8---8-8--8-8--8-8--8-8--8-8----12--12-----10--10-----------------|x2
A----6---8-8--6-6--8-8--6-6--8-8----10--10------8---8-----------------|
E--------6-6-------6-6-------6-6--------------------------------------|



e---------------------------------------------------------------------|
B---------------------------------------------------------------------|
G-----------------------------------------6--8-8-8-8------------------|
D-----5-5--3-3----3-3-3---0---3-3-3---0---6--8-8-8-8------------------|
A-----5-5--3-3----3-3-3---0---3-3-3---0---4--6-6-6-6------------------|
E-----7-7--5-5----5-5-5---0---1-1-1---0-------------------------------|


e---------------------------------------------------------------------|
B---------------------------------------------------------------------|
G----8--------8-8-------8-8---------12--12-----10--10-----------------|
D----8---8-8--8-8--8-8--8-8--8-8----12--12-----10--10-----------------|x4
A----6---8-8--6-6--8-8--6-6--8-8----10--10------8---8-----------------|
E--------6-6-------6-6-------6-6--------------------------------------|

e---------------------------------------------------------------------|
B---------------------------------------------------------------------|
G-------------------------------6--8-8-8-8----------------------------|
D-------3-3-3---0---3-3-3---0---6--8-8-8-8----------------------------|X2
A-------3-3-3---0---3-3-3---0---4--6-6-6-6----------------------------|
E-------5-5-5---0---1-1-1---0-----------------------------------------|

Solo-drums

e---------------------------------------------------------------------|
B---------------------------------------------------------------------|
G---------8-8---------------------------------------------------------|
D---------8-8---------------------------------------------------------|
A---------6-6---------------------------------------------------------|
E---------------------------------------------------------------------|







e---------------------------------------------------------------------|
B---------------------------------------------------------------------|
G-------------------------------6--8-8-8-8----------------------------|
D-------3-3-3---0---3-3-3---0---6--8-8-8-8----------------------------|X2
A-------3-3-3---0---3-3-3---0---4--6-6-6-6----------------------------|
E-------5-5-5---0---1-1-1---0-----------------------------------------|

e---------------------------------------------------------------------|
B---------------------------------------------------------------------|
G--10-10-10-10-10-10-10-10--6-6-6-6-6-6-6-6--10-10-10-10-10-10-10-10--|
D--10-10-10-10-10-10-10-10--6-6-6-6-6-6-6-6--10-10-10-10-10-10-10-10--|
A---8--8--8--8--8--8--8--8--4-4-4-4-4-4-4-4---8--8--8--8--8--8--8--8--|
E---------------------------------------------------------------------|

e---------------------------------------------------------------------|
B---------------------------------------------------------------------|
G-----------8-8---------------6-6-------------------------------------|
D-----------8-8---------------6-6-------------------------------------|
A-----------6-6---------------4-4-------------------------------------|
E---------------------------------------------------------------------|

e---------------------------------------------------------------------|
B---------------------------------------------------------------------|
G--10-10-10-10-10-10-10-10--6-6-6-6-6-6-6-6--10-10-10-10-10-10-10-10--|
D--10-10-10-10-10-10-10-10--6-6-6-6-6-6-6-6--10-10-10-10-10-10-10-10--|
A---8--8--8--8--8--8--8--8--4-4-4-4-4-4-4-4---8--8--8--8--8--8--8--8--|
E---------------------------------------------------------------------|

e---------------------------------------------------------------------|
B---------------------------------------------------------------------|
G-----------8-8---------------6-6-------------------------------------|
D-----------8-8---------------6-6-------------------------------------|
A-----------6-6---------------4-4-------------------------------------|
E---------------------------------------------------------------------|

e---------------------------------------------------------------------|
B---------------------------------------------------------------------|
G---------------------------------------------------------------------|
D------8-8-8-8-8-8-8-8-8-8-8-8-8-8-8-8-8-8--8---8---8---8-------------|
A------8-8-8-8-8-8-8-8-8-8-8-8-8-8-8-8-8-8--8---8---8---8-------------|
E------6-6-6-6-6-6-6-6-6-6-6-6-6-6-6-6-6-6--6---6---6---6-------------|

e---------------------------------------------------------------------|
B---------------------------------------------------------------------|
G----8--------8-8-------8-8---------12--12-----10--10-----------------|
D----8---8-8--8-8--8-8--8-8--8-8----12--12-----10--10-----------------|x4
A----6---8-8--6-6--8-8--6-6--8-8----10--10------8---8-----------------|
E--------6-6-------6-6-------6-6--------------------------------------|

e---------------------------------------------------------------------|
B---------------------------------------------------------------------|
G-------------------------------6--8-8-8-8----------------------------|
D-------3-3-3---0---3-3-3---0---6--8-8-8-8----------------------------|X2
A-------3-3-3---0---3-3-3---0---4--6-6-6-6----------------------------|
E-------5-5-5---0---1-1-1---0-----------------------------------------|






e---------------------------------------------------------------------|
B---------------------------------------------------------------------|
G---------------------------------------------------------------------|
D---------------------------------------------------------------------|
A---5-6-6-6-6-6-6-6-5-6-6-6-6-6-6-5-6-6-6-6-6-6-5-6-6-6-5-6-6-6-5-6-6-|
E---------------------------------------------------------------------|

e---------------------------------------------------------------------|
B---------------------------------------------------------------------|
G-------------------------------6--8-8-8-8----------------------------|
D-------3-3-3---0---3-3-3---0---6--8-8-8-8----------------------------|X2
A-------3-3-3---0---3-3-3---0---4--6-6-6-6----------------------------|
E-------5-5-5---0---1-1-1---0-----------------------------------------|

e---------------------------------------------------------------------|
B---------------------------------------------------------------------|
G-----------5-----8---------------------------------------------------|
D-----------5--/--8---------------------------------------------------|
A-----------7-----6---------------------------------------------------|
E---------------------------------------------------------------------|
            
Hard to play? Try these video lessons and learn fast. | Correct




comments powered by Disqus
↑ Back to top | Tablatures and chords are parodies/interpretations of the original songs. You may use it for private study, scholarship, research or language learning purposes only