» » »

Adicts, England Bass tabs (ver.1)

Artists:  A B C D E F G H I J K L M N O P Q R S T U V W X Y Z # 

England Bass tabs (ver.1)

Adicts Tabs
 Rating:
4.2/5 (5 votes)
England lessons Tabs too difficult? Try these video lessons and learn fast
                Song : England
Band: The Adicts

intro

G-------------------------------------------------------|
D--------------------------------------55--33-----------|
A---5-66--------66-------66-----------------------------|
E--------556655---556655---556655-----------------------|


verse 2x

G-------------------------------------------------------|
D---11--11--11-----------11---11---11-------------------|
A-----11--11--11-----------11---11---11-----------------|
E----------------33---22----------------33---22---------|



chorus 1x

G-------------------------------------------------------|
D-------------------------------------------------------|
A-----------4-44-44-------44-66-------------------------|
E----1-11-11-------1-11-11------------------------------|



verse 2x

G-------------------------------------------------------|
D---11--11--11-----------11---11---11-------------------|
A-----11--11--11-----------11---11---11-----------------|
E----------------333--2----------------333--2-----------|

chorus

G-------------------------------------------------------|
D-------------------------------------------------------|
A-----------4-44-44-------44-66-------------------------|
E----1-11-11-------1-11-11------------------------------|


G-------------------------------------------------------|
D-------------------------------------------------------|
A-----------4-44-44-------44-66-------------------------|
E----1-11-11-------1-11-11------------------------------|


G-------------------------------------------------------|
D-------------------------------------------------------|
A---5-6~~5-6~~5-6~~5-6~~5-6~~5-6~~5-6~~5-6~~5-6~~-------|
E-------------------------------------------------------|

G-------------------------------------------------------|
D-------------------------------------------------------|
A--5-6~~5-6~~---6-8-9-10--------------------------------|
E-------------------------------------------------------|

chorus

G-------------------------------------------------------|
D-------------------------------------------------------|
A-----------4-44-44-------44-66-------------------------|
E----1-11-11-------1-11-11------------------------------|


G-------------------------------------------------------|
D-------------------------------------------------------|
A-----------4-44-44-------44-66-------------------------|
E----1-11-11-------1-11-11------------------------------|



G-------------------------------------------------------|
D----33333333--------33333333---------------------------|
A------------44444444---------66--44--------------------|
E-------------------------------------------------------|

G-------------------------------------------------------|
D----3-3-3-3-------3-3-3-3------------------------------|
A-----------4-4-4-4-----------66--44--------------------|
E-------------------------------------------------------|

G-------------------------------------------------------|
D-------------------------------------------------------|
A----1-1-1-1--1-1-1-1--1-1-1-1--1-3-4-6-----------------|
E-------------------------------------------------------|


verse 2x

G-------------------------------------------------------|
D---11--11--11-----------11---11---11-------------------|
A-----11--11--11-----------11---11---11-----------------|
E----------------333--2----------------333--2-----------|

chorus

G-------------------------------------------------------|
D-------------------------------------------------------|
A-----------4-44-44-------44-66-------------------------|
E----1-11-11-------1-11-11------------------------------|


G-------------------------------------------------------|
D-------------------------------------------------------|
A-----------4-44-44-----------44-66---------------------|
E----1-11-11-----------1-11-11--------------------------|



G----7-888-7-888-7-888-7-888----------------------------|
D-------------------------------------------------------|
A-------------------------------------------------------|
E-------------------------------------------------------|

chorus

G-------------------------------------------------------|
D-------------------------------------------------------|
A-----------4-44-44-----------44-66---------------------|
E----1-11-11-----------1-11-11--------------------------|


G-------------------------------------------------------|
D-------------------------------------------------------|
A-----------4-44-44-----------44-66---------------------|
E----1-11-11-----------1-11-11--------------------------|





Just listen to the song and you should get the rythym.
enjoy.
            
Submit corrections

comments powered by Disqus
↑ Back to top | Adicts Bass for England. Lyrics for acoustic guitar and electric guitar. Tablatures and chords are parodies/interpretations of the original songs. You may use it for private study, scholarship, research or language learning purposes only