» » »

Adicts, Steamroller Tabs (ver.1)

Artists:  A B C D E F G H I J K L M N O P Q R S T U V W X Y Z # 

Steamroller Tabs (ver.1)

Adicts Tabs
 Rating:
3.8/5 (5 votes)
Steamroller lessons Tabs too difficult? Try these video lessons and learn fast
                Adicts

THIS IS MY FAVORITE ADICTS SONG! (like you care)
This version is their 7" version. I don't think that the other version
is in the same order as this one, so pay attention.

INTRO

 p.m. ~~~~~~~~~~~~~~~~~~~~~~~~~~~~~~~~~~~~~~~~~~~~~
|------------------------------------------------------------------|
|------------------------------------------------------------------|
|-----------------9-9-9-9-9-9-9-9----------------------------------|
|-7-7-7-7-7-7-7-7-9-9-9-9-9-9-9-9-1010101010101010-9-9-9-9-9-9-9-9-|
|-7-7-7-7-7-7-7-7-7-7-7-7-7-7-7-7-1010101010101010-9-9-9-9-9-9-9-9-|
|-5-5-5-5-5-5-5-5------------------8-8-8-8-8-8-8-8-7-7-7-7-7-7-7-7-|

 p.m. ~~~~~~~~~~~~~~~~~~~~~~~~~~~~~~~~~~~~~~~      let ring out
|------------------------------------------------------------------|
|------------------------------------------------------------------|
|-----------------9-9-9-9-9-9-9-9----------------------------------|
|-7-7-7-7-7-7-7-7-9-9-9-9-9-9-9-9-1010101010101010-9---------------|
|-7-7-7-7-7-7-7-7-7-7-7-7-7-7-7-7-1010101010101010-9---------------|
|-5-5-5-5-5-5-5-5------------------8-8-8-8-8-8-8-8-7---------------|

 pick scr*pe (doesn't really matter where. it's punk.)
|---------|
|---------|
|---------|
|---------|
|---------|
|-\-------|

CHORUS

|------------------------------------------------------------------|
|------------------------------------------------------------------|
|-----------------9-9-9-9-9-9-9-9----------------------------------|
|-7-7-7-7-7-7-7-7-9-9-9-9-9-9-9-9-1010101010101010-9-9-9-9-9-9--10-| x2
|-7-7-7-7-7-7-7-7-7-7-7-7-7-7-7-7-1010101010101010-9-9-9-9-9-9--10-|
|-5-5-5-5-5-5-5-5------------------8-8-8-8-8-8-8-8-7-7-7-7-7-7---8-|
 my baby got run over wah-wah ooh. by a steamroller!

VERSE
                    
|-------------------------|
|-------------------9-----|
|-10------------9-----9---|
|-10------------9-------9-| x3
|--8------------7---------|
|-------------------------|

BRIDGE

|-----------------------    ------------------------------|
|-----------------------    ------------------------------|
|-101010101010-9-xxxxxx-    -10-10-10/9-9-9/7-7-7/5-5-5-x-|
|-101010101010-9-xxxxxx- x3 -10-10-10/9-9-9/7-7-7/5-5-5-x-|
|--8-8-8-8-8-8-7-xxxxxx-    --8--8--8/7-7-7/5-5-5/3-3-3-x-|
|-----------------------    ------------------------------|

OUTRO

 let ring out
|----------------------------------------------|
|----------------------------------------------|
|----------------------------------------------|
|-7--------------------------------------------|
|-7--------------------------------------------|
|-5--------------------------------------------|

|------------------------------------------------------------------|
|------------------------------------------------------------------|
|-----------------9-9-9-9-9-9-9-9----------------------------------|
|-7-7-7-7-7-7-7-7-9-9-9-9-9-9-9-9-1010101010101010-9---------------|
|-7-7-7-7-7-7-7-7-7-7-7-7-7-7-7-7-1010101010101010-9---------------|
|-5-5-5-5-5-5-5-5------------------8-8-8-8-8-8-8-8-7---------------|
                                                   STEAMROLLER!
SONG ORDER
____________

INTRO
CHORUS x2
VERSE
CHORUS
VERSE
CHORUS
BRIDGE
CHORUS
VERSE
CHORUS
OUTRO

if you wanna say somethin', or don't.
            
Submit corrections

comments powered by Disqus
↑ Back to top | Adicts Tabs for Steamroller. Lyrics for acoustic guitar and electric guitar. Tablatures and chords are parodies/interpretations of the original songs. You may use it for private study, scholarship, research or language learning purposes only