» » »

A Day To Remember, Price We Pay Tabs (ver.1)

Artists:  A B C D E F G H I J K L M N O P Q R S T U V W X Y Z # 

Price We Pay Tabs (ver.1)

A Day To Remember Tabs
 Rating:
4/5 (4 votes)
Price We Pay lessons Tabs too difficult? Try these video lessons and learn fast
                A Day To Remember

Tuning of Drop C (CGCFAD)
0:04
Acoustic Guitar
D|---3-------|    D|-----3-----|
A|-----3---3-|    A|-------3---|
F|-------0-0-| x3 F|---------0-| x1   <-----Repeat intro twice
C|--2------0-|    C|---2-------|
G|-3-------2-|    G|-0---------|
D|-----------|    D|-----------|

Repeat this as many times as you see fit but I do it only 2 time before the vocals come in.

0:33
Acoustic Guitar
  C/G     Em/G
D|-3-|   D|-3-| These 2-|
A|-3-|   A|-3-----------| chords played
F|-0-|   F|-0-----------| with up and down
C|-2-|   C|-2-----------| strokes, you play
G|-3-|   G|-2-----------| this part 3 times
D|-0-|   D|-0-----------| through.

  A/G      C/G
D|-3-|   D|-3----------| These 2 are played
A|-3-|   A|-3----------| once and sound like
F|-2-|   F|-0----------| the change in the
C|-2-|   C|-2-| intro--|
G|-0-|   G|-3----------|
D|-x-|   D|-0-|

Repeat this chord sequence until 2:00 then the piano leads off.
These chords are played to the same general motif of the intro and to the same rythm and tempo.

Electric Guitar
0:33-1:00
D|-------------------------------------------------------------------|
A|-----------15-----------------15------------------15---------------|
F|----11-12--------------11-12-----12-11-----11-12----------12/14\12-| x2
C|-12-----------------12------------------12-------------12----------|
G|-------------------------------------------------------------------|
C|-------------------------------------------------------------------|

Listen very closely for the C|12 and where it comes in. The C|12 can be left out but it 
does add some texture to the piece.

1:00-1:30
D|------------------------------|
A|-----------15---------15------|
F|----11-12------11-12------12--| x8
C|-12---------------------------|
G|------------------------------|
C|------------------------------|

This part may be difficult at first but it is really fun to play when you get it.

1:30-2:00
D|-------------------------------------------------------------------|
A|-----------15-----------------15------------------15---------------|
F|----11-12--------------11-12-----12-11-----11-12----------12/14\12-| x2
C|-12-----------------12------------------12-------------12----------|
G|-------------------------------------------------------------------|
C|-------------------------------------------------------------------|

You play this riff twice more then let the piano play it out.
            
Submit corrections

comments powered by Disqus
↑ Back to top | A Day To Remember Tabs for Price We Pay. Lyrics for acoustic guitar and electric guitar. Tablatures and chords are parodies/interpretations of the original songs. You may use it for private study, scholarship, research or language learning purposes only