» » »

Homesick Bass tabs (ver.1)

Artists:  A B C D E F G H I J K L M N O P Q R S T U V W X Y Z # 

Homesick Bass tabs (ver.1)

A Day To Remember
Rating:
0/5 (0 votes)

Hard to play? Try these video lessons and learn fast.
                

Tuning:Drop C
Verse 1
F|---------------------------------------------|
C|---------------------------------------------|
G|------0~--------------------3~---------------|
C|-------------0~------3~--------------5~--6~--|
                                                                                              
F|---------------------------------------------|
C|---------------------------------------------|
G|--0-----0-------------------------3~---------|
C|----00-0-00-0-----0~-------3~--------5~--6~--|

F|---------------------------------------------|
C|---------------------------------------------|
G|--------------------------0-0-000-3-3333333--|
C|--3-3-333-5~-5555555-------------------------|

F|-----------------------------------------------------|
C|-----------------------------------------------------|
G|-------------------------------0-----0-----0-----0---|
C|--3-3-333-5~-5555555---------------------------------|

F|-----------------------------------------------------|
C|-----------------------------------------------------|
G|--------------------------0-0-000-3-3333333----------|
F|--3-3-333-5~-5555555---------------------------------|

F|-----------------------------------------------------|
C|-----------------------------------------------------|
G|-----------------------------------------------------|
C|-------3~----------------------35~-------------------|

Chorus 1
F|-----------------------------------------------------|
C|-----------------------------------------------------|
G|-3333333333333333------00000000----------------------|
C|-------------------------------------33333333--------|

F|-----------------------------------------------------|  
C|-----------------------------------------------------|
G|-3333333333333333------00000000----------------------|
C|-------------------------------------33333333---6~---|

Verse 2
F|-----------------------------------------------------|
C|-----------------------------------------------------|
G|------0~--------------------3~-----------------------|
C|-------------0~------3~--------------5~--6~----------|
                                                                                              
F|-----------------------------------------------------|
C|-----------------------------------------------------|
G|--0-----0-------------------------3~-----------------|
C|----00-0-00-0-----0~-------3~--------5~--6~----------|

F|-----------------------------------------------------|
C|-----------------------------------------------------|
G|--------------------------0-0-000-3-3333333----------|
C|--3-3-333-5~-5555555---------------------------------|

F|-----------------------------------------------------|
C|-----------------------------------------------------|
G|-------------------------------0-----0-----0-----0---|
C|--3-3-333-5~-5555555---------------------------------|

F|------------------------------------------------------|
C|------------------------------------------------------|
G|--------------------------0-0-000-3-3333333-----------|
C|--3-3-333-5~-5555555----------------------------------|

F|------------------------------------------------------|
C|------------------------------------------------------|
G|------------------------------------------------------|
C|-------3~----------------------35~--------------------|

Chorus 2
F|------------------------------------------------------|
C|------------------------------------------------------|
G|-3333333333333333-00000000----------------------------|
C|-------------------------------------33333333---------|

F|------------------------------------------------------|
C|------------------------------------------------------|
G|-3333333333333333------00000000-----------------------|
C|-------------------------------------33333333---------|

F|------------------------------------------------------|
C|------------------------------------------------------|
G|---3-3--333--333--333--33333333--00000000-------------|
C|-------------------------------------------33333333---|

F|------------------------------------------------------|
C|------------------------------------------------------|
G|---3-3--333--333--333--33333333--00000000-------------|
C|-------------------------------------------33333333---|

Bridge 
F|------------------------------------------------------|
C|------------------------------------------------------|
G|------------------------------------------------------|
C|---3~~-----5~--3~~---5~--7~~--7~--5555555555555-------|

F|------------------------------------------------------|
C|------------------------------------------------------|
G|--------------------------------00000-----------------|
C|----33333---------33333-----------------------55555---|

F|------------------------------------------------------|
C|------------------------------------------------------|
G|--------------------------------00000-----------------|
C|----33333---------33333-----------------------55555---|

F|------------------------------------------------------|
C|------------------------------------------------------|
G|------------------------------------------------------|
C|---3~~------------3-3-3-3-3-3-3-3-3-3-3-3-3-3-3-3-----|

Chorus 3/Ending
F|------------------------------------------------------|
C|------------------------------------------------------|
G|-3333333333333333------00000000-----------------------|
C|-------------------------------------33333333---------|

F|------------------------------------------------------|
C|------------------------------------------------------|
G|-3333333333333333-------00000000----------------------|
C|-------------------------------------33333333---------|

F|------------------------------------------------------|
C|------------------------------------------------------|
G|---3-3--333--333--333--33333333--00000000-------------|
C|-------------------------------------------33333333---|

F|------------------------------------------------------|
C|------------------------------------------------------|
G|---3-3--333--333--333--33333333--00000000-------------|
C|-----------------------------------------------3~-----|

| /  slide up
| \  slide down
| h  hammer-on
| p  pull-off
| ~  vibrato
| +  harmonic
| x  Mute note
            
Hard to play? Try these video lessons and learn fast. | Correct




comments powered by Disqus
↑ Back to top | Tablatures and chords are parodies/interpretations of the original songs. You may use it for private study, scholarship, research or language learning purposes only