» » »

A Day To Remember, Holdin It Down For The Underground Tabs (ver.2)

Artists:  A B C D E F G H I J K L M N O P Q R S T U V W X Y Z # 

Holdin It Down For The Underground Tabs (ver.2)

A Day To Remember Tabs
 Rating:
4/5 (4 votes)
Holdin It Down For The Underground lessons Tabs too difficult? Try these video lessons and learn fast
1
                
REAL FANS SUPPORT BANDS BY PURCHASING THEIR CDS!

Tuning: Drop C

. =palm-muted
~ =hold note
^ =vibrato
b =bend
r =release
p =pull off
h =hammer on


Intro: Guitar 2
D--------5~------------5~------------5~-------------5~-------|
A--------6~------------6~------------6~-------------6~-------|
F------------------------------------------------------------|
C--8-8~------(8)-8-8~------(8)-5-5~-------(5)-5-5~-----------|
G------------------------------------------------------------|
C------------------------------------------------------------|

D---------5~------------5~--------------5~---------------5~------|
A---------6~------------6~--------------6~---------------6~------|
F----------------------------------------------------------------|
C--0-0~------(0)-0-0~--------(0)-0-0~--------(0)-0-0~------------|
G----------------------------------------------------------------|
C----------------------------------------------------------------|
(Continues through the whole intro)


Guitar 1: (0:13)
D---------------------------------------------------------------|
A---------------------------------------------------------------|
F---------------------------------------------------------------|
C---8-------5--------0------------8--------5--------0-----------|
G---8--x8---5--x8----0--x16-------8--x8----5--x8----0--x16------|
C---8-------5--------0------------8--------5--------0-----------|

0:25
D-------------------------------------|
A-------------------------------------|
F-------------------------------------|
C---8--------5-5-5-5--7-7-7-----------|
G---8--x8----5-5-5-5--7-7-7-----------|
C---8--------5-5-5-5--7-7-7-----------|


Guitar 2:   0:25
D---------------------------------------|
A---------------------------------------|
F---10------9-9-9-9---10--10--10--------|
C---x--x8---x-x-x-x---x---x---x---------|
G---8-------7-7-7-7---8---8---8---------|
C---------------------------------------|


Guitar 3:   0:25
D-----------------------------------------------|
A-----------------------------------------------|
F----17--------12-12-12-12---14-14-14-----------|
C----x---x8----x--x--x--x----x--x--x------------|
G----15--------10-10-10-10---12-12-12-----------|
C-----------------------------------------------|

Verse: Guitar 1
D------------------------------------------------------------------------|
A------------------------------------------------------------------------|
F------------------------------------------------------------------------|
C------------------------------------------------------------------------|
G---0-0-0-0---000-000------0-0-0-0---000-000-----0-0-0-0---000-000-------|
C---0-0-0-0---000-000------0-0-0-0---000-000-----0-0-0-0---000-000-------|
    . . . .   ... ...      . . . .   ... ...     . . . .   ... ...

D----------------------------------------|
A----------------------------------------|
F----------------------------------------|
C--------------5-5-5-----8-8-8-----------|
G---0-0-0-0----5-5-5-----8-8-8-----------|
C---0-0-0-0----5-5-5-----8-8-8-----------|
    . . . .


Guitar 2:
D------------------------------------------------------------|
A------------------------------------------------------------|
F------------------------------------------------------------|
C------------------------------------5-5-5----8-8-8----------|
G---0-0-0-0-0-0-0-0--------0-0-0-0---5-5-5----8-8-8----------|
C---0-0-0-0-0-0-0-0--x7----0-0-0-0---5-5-5----8-8-8----------|
    . . . . . . . .        . . . .


Guitar 3: 0:40
D-------------------------------------|
A-------------------------------------|
F---10--7-----------7--10-------------|
C----------10----10-------------------|
G-------------------------------------|
C-------------------------------------|


Guitar 1+2  0:41
D----------------------------------------------------------------------------|
A----------------------------------------------------------------------------|
F----------------------------------------------------------------------------|
C-----------------------------------------------------------5-5-5----8-8-8---|
G---0-0-0-0-0-0-0-0---0-0-0-0-000-000-----0-0-0-0-0-0-0-0---5-5-5----8-8-8---|
C---0-0-0-0-0-0-0-0---0-0-0-0-000-000-----0-0-0-0-0-0-0-0---5-5-5----8-8-8---|
    . . . . . . . .   . . . . ... ...     . . . . . . . .

(leave out the 3 last 8s at 0:52)


Guitar 3:     0:47 and 0:52
D-------------------------------------|
A-------------------------------------|
F---10--7-----------7--10-------------|
C----------10----10-------------------|
G-------------------------------------|
C-------------------------------------|
   [0:52     ]
   [0:47                ]

Chorus: Guitar 1
D-----------------------------------------|
A-----------------------------------------|
F-----------------------------------------|
C---8--------5--------0--------3----------| x3
G---8--x8----5--x8----0--x8----3--x8------|
C---8--------5--------0--------3----------|

D---------------------------------------|
A---------------------------------------|
F---------------------------------------|
C----8--------5-5-5-5---7-7-7-----------| (the other guitars play this part
G----8--x8----5-5-5-5---7-7-7-----------|  as in the intro)
C----8--------5-5-5-5---7-7-7-----------|

(Guitar 2 plays the intro)

Verse 2 (dif order)   Guitar 1(+2):
D----------------------------------------------------------------------------|
A----------------------------------------------------------------------------|
F----------------------------------------------------------------------------|
C-----------------------------------------------------------5-5-5----8-8-8---|
G---0-0-0-0-0-0-0-0---0-0-0-0-000-000-----0-0-0-0-0-0-0-0---5-5-5----8-8-8---|
C---0-0-0-0-0-0-0-0---0-0-0-0-000-000-----0-0-0-0-0-0-0-0---5-5-5----8-8-8---|
    . . . . . . . .   . . . . ... ...     . . . . . . . .
(a few times)

then...
D------------------------------------------------------------------------|
A------------------------------------------------------------------------|
F------------------------------------------------------------------------|
C------------------------------------------------------------------------|
G---0-0-0-0---000-000------0-0-0-0---000-000-----0-0-0-0---000-000-------|
C---0-0-0-0---000-000------0-0-0-0---000-000-----0-0-0-0---000-000-------|
    . . . .   ... ...      . . . .   ... ...     . . . .   ... ...

D-----------------------------|
A-----------------------------|
F-----------------------------|
C--------------5-5-5-5--------|
G---0-0-0-0----5-5-5-5--------|
C---0-0-0-0----5-5-5-5--------|
    . . . .


////REPEAT CHORUS\\\\\


Break-Down: Guitar 1(+2)
D---------------------------------------------------------------------------|
A---------------------------------------------------------------------------|
F---------------------------------------------------------------------------|
C--(0~)---------------------------------------------------------------------|
G--(0~)---0-0--1-1---0-0~------0-0--1-1---0-0~----55555555--33333333--------|
C--(0~)---0-0--1-1---0-0~------0-0--1-1---0-0~----55555555--33333333--------|
          . .  . .   . .       . .  . .   . .    ........  ........

D------------------------------------------------|
A------------------------------------------------|
F------------------------------------------------|
C------------------------------------------------|
G---0-0--1-1---0-0~-----0-0--1-1--0-1------------|
C---0-0--1-1---0-0~-----0-0--1-1--0-1------------|
    . .  . .   . .      . .  . .  . .


Heavy Breakdown: Guitar 1(+2)
D-----------------------------------------------------------------------|
A-----------------------------------------------------------------------|
F-----------------------------------------------------------------------|
C-----------------------------------------------------------------------| x2
G---0-0-0---0-0---0-0-0-0---00000000--00--00--00--0000--0000--000--000--|
C---0-0-0---0-0---0-0-0-0---00000000--00--00--00--0000--0000--000--000--|
    . . .   . .   . . . .   ........  ..  ..  ..  ....  ....  ...  ...

D----------------------------------------------------------------------------|
A----------------------------------------------------------------------------|
F----------------------------------------------------------------------------|
C--------------------------------------------------------------5-5-5--8-8-8--|
G--0-0-0~---0-0~---0-0-0-0~---00000000--00~--00~--00~--0000~---5-5-5--8-8-8--|
C--0-0-0~---0-0~---0-0-0-0~---00000000--00~--00~--00~--0000~---5-5-5--8-8-8--|
   . . .    . .    . . . .    ........  ..   ..   ..   ....


////REPEAT CHORUS\\\\


Outro:  Guitar 1+2
D------------------------------------------------------------------------|
A------------------------------------------------------------------------|
F------------------------------------------------------------------------|
C-----------------------------------------------------------0-0-0-0------|
G---0-0-0-0-0-0-0-0---0-0-0-0-000-000-----0-0-0-0-0-0-0-0---0-0-0-0------|
C---0-0-0-0-0-0-0-0---0-0-0-0-000-000-----0-0-0-0-0-0-0-0---0-0-0-0------|
    . . . . . . . .   . . . . ... ...     . . . . . . . .

Well, thats it! I hope u enjoyed it... Please rate and comment!

Cheers...
            
Submit corrections

comments powered by Disqus
↑ Back to top | A Day To Remember Tabs for Holdin It Down For The Underground. Lyrics for acoustic guitar and electric guitar. 1 Tablatures and chords are parodies/interpretations of the original songs. You may use it for private study, scholarship, research or language learning purposes only