» » »

A Day To Remember, All Signs Point To Lauderdale Tabs (ver.2)

Artists:  A B C D E F G H I J K L M N O P Q R S T U V W X Y Z # 

All Signs Point To Lauderdale Tabs (ver.2)

A Day To Remember Tabs
 Rating:
4/5 (20 votes)
All Signs Point To Lauderdale lessons Tabs too difficult? Try these video lessons and learn fast
1
                All Signs Point To Lauderdale off of A Day To Remember's latest album What Separates Me 
You was just released not too long ago.

Drop C tuning!


INTRO:
--------------------------------------------|
--------------------------------------------|
-------------55555555-----------------------|
--33333333---55555555---77777777---55555555-|
--33333333---33333333---77777777---55555555-|
--33333333--------------77777777---55555555-|
PM...........................................


-------------------------------------|
-------------------------------------|
-------------55555555----------------|
--33333333---55555555---55--555--5/--|
--33333333---33333333---55--555--5/--|
--33333333--------------55--555--5/--|
PM...............................

INTRO Part 2:
Guitar 1:
--------------------------------------------------------|
--------------------------------------------------------|
--7-/-9-\-7-\-55555555555---7-/-9-\-7-\-55555-12-12-12--|
--x-/-x-\-x-\-xxxxxxxxxxx---x-/-x-\-x-\-xxxxx--x--x--x--|
--5-/-7-\-5-\-33333333333---5-/-7-\-5-\-33333-10-10-10--|
--------------------------------------------------------|

------------------------------------------------------------------------|
------------------------------------------------------------------------|
--7-/-9-\-7-\-55555555555---7-/-9-\-7-\-12-12/101010/-999/7-/-9-\-7-\5--|
--x-/-x-\-x-\-xxxxxxxxxxx---x-/-x-\-x-\--x--x/x-x-x/--xxx/x-/-x-/-x-\x--|
--5-/-7-\-5-\-33333333333---5-/-7-\-5-\-10-10/8-8-8/--777/5-/-7-\-5-\3--|
------------------------------------------------------------------------|


Guitar 2:
--------------------------------------------|
--------------------------------------------|
-------------55555555-----------------------|
--33333333---55555555---77777777---55555555-|
--33333333---33333333---77777777---55555555-|
--33333333--------------77777777---55555555-|


---------------------------------------|
---------------------------------------|
-------------55555555------------------|
--33333333---55555555---55--555--555/--|
--33333333---33333333---55--555--555/--|
--33333333--------------55--555--555---|


VERSE:

Not 100% sure about the high part, but enough pinch harmonics makes this sound perfect. 
guitars do the palm muted chords and only one does the high notes.
----------------------------------------------------------------------------|
-------------------8--------------------------------8-----------------------|
---------------7-----7--------------------------7-----7---------------------|
--33333--33--9---9-----77777--77--33333--33--9---9------77777--77/55555555--|
--33333--33------------77777--77--33333--33-------------77777--77/55555555--|
--33333--33------------77777--77--33333--33-------------77777--77/55555555--|
PM .....  ..  ......... ....  ..  .....  ..  ........  .....  .. ........

Then both guitars switch to:
--------------------------------------------------------|
--------------------------------------------------------|
--7-/-9-\-7-\12---7-/-9-\-7-\12---7-/-9-\-7-\5----------|
--x-/-x-\-x-\-x---x-/-x-\-x-\-x---x-/-x-\-x-\x----------|
--5-/-7-\-5-\10---5-/-7-\-5-\10---5-/-7-\-5-\3----------|
--------------------------------------------------------|

--------------------------------------------------------|
--------------------------------------------------------|
--7-/-9-\-7-\12---7-7/-9-9---7-/-9-\-7-\5---------------|
--x-/-x-\-x-\-x---x-x/-x-x---x-/-x-\-x-\x---------------|
--5-/-7-\-5-\10---5-5/-7-7---5-/-7-\-5-\3---------------|
--------------------------------------------------------|

Then use Intro part 2 as the Chorus,
then back to the Verse,
then the Chorus again (repeat it for the "Don't believe a word..."),

then this Bridge:

--------------------------------------------------------------------------|
--------------------------------------------------------------------------|
--------------------------------------------------------------------------|
-77777777-77777777-55555555-55555555-33333333-33333333-33333333-33333333--|
-77777777-77777777-55555555-55555555-33333333-33333333-33333333-33333333--|
-77777777-77777777-55555555-55555555-33333333-33333333-33333333-33333333--|
PM........................................................................


--------------------------------------------------|
--------------------------------------------------|
--------------------------------------------------|
-77777--7777-55555--5555--33333--33333-3333333/---|
-77777--7777-55555--5555--33333--33333-3333333/---|
-77777--7777-55555--5555--33333--33333-3333333/---| <-keep playing this
PM..........................................


------------------------------------------------------|
------------------------------------------------------|
----------12-------12---12------12----9/10------------|
-10101010----10-10----10--10-10----10-----------------|
------------------------------------------------------|
------------------------------------------------- ----| 3x
PM..........................................

--------------------------------------------------|
--------------------------------------------------|
----------12-------12---12-------7/9\7\5----------|
-10101010----10-10----10--10-10--x/x\x\x----------|
---------------------------------5/7\5\3----------|
--------------------------------------------------| <- 4th time
PM..........................................


then Chorus (Intro part 2) again,
and then do this till it fades out:

-----------|
-----------|
-----------|
-----------|
-----------|
-33333-33--|
PM..... ..

That's it. Enjoy!
            
Submit corrections

comments powered by Disqus
↑ Back to top | A Day To Remember Tabs for All Signs Point To Lauderdale. Lyrics for acoustic guitar and electric guitar. 1 Tablatures and chords are parodies/interpretations of the original songs. You may use it for private study, scholarship, research or language learning purposes only