>
 >
All I Want 1

All I Want 1 Guitar Tabs

A Day To Remember - All I Want 1 chords, tabs, tablatures, lyrics

Guitar lessons | Add/correct | Request | Top 50 tabs Artists:  A B C D E F G H I J K L M N O P Q R S T U V W X Y Z 0-9

All I Want 1 Guitar Tabs – A Day To Remember

CD, Sheet music, Poster

Do you like All I Want 1? Share with your friends now
Bass TabsBass Tabs v2Bass Tabs v3Bass Tabs v4Bass Tabs v5Bass Tabs v6ChordsChords v2Chords v3Chords v4TabsTabs v2Tabs v3Tabs v4Tabs v5UkuleleUkulele v2
All I Want
A Day To Remember
What Separates Me from You (2010)

Words & Music by Jeremy McKinnon, Neil Westfall, Kevin Skaff, Joshua Woodward, 
and Alex Shellnut

NOTE: I am unsure about the lead on the Chorus

GTR I - Drop C Tuning "Kevin Skaff" (d,A,F,C,G,C)
GTR II - Drop C Tuning "Neil Westfall" (d,A,F,C,G,C)
GTR III - Drop C Tuning "Fill" (d,A,F,C,G,C)

Intro

  GTR I
d|-------------------------------------------------|
A|-------------------------------------------------|
F|-12-12-12-12-12-12-12--7--9--9--9--9--9--9--9--7-|
C|--x--x--x--x--x--x--x--x--x--x--x--x--x--x--x--x-|
G|-10-10-10-10-10-10-10--5--7--7--7--7--7--7--7--5-|
C|-------------------------------------------------|
 |
 |GTR II
d|-------------------------------------------------|
A|-------------------------------------------------|
F|-----------------------7--9--9--9--9--9--9--9--7-|
C|--2--2--2--2--2--2--2--x--x--x--x--x--x--x--x--x-|
G|--2--2--2--2--2--2--2--5--7--7--7--7--7--7--7--5-|
C|--2--2--2--2--2--2--2----------------------------|

  GTR I
d|--8p-7--------------8p-7-------------------------|
A|--------8-10p-8-----------8-10p-8----10h12p10----|
F|-----------------9-----------------9----------12-|
C|-------------------------------------------------|
G|-------------------------------------------------|
C|-------------------------------------------------|
 |
 |GTR II
d|-------------------------------------------------|
A|-------------------------------------------------|
F|--5--5--5--5--5--5--5--5-------------------------|
C|--5--5--5--5--5--5--5--5--5--5--5--5--4--4--4--4-|
G|--3--3--3--3--3--3--3--3--5--5--5--5--5--5--5--5-|
C|--------------------------5--5--5--5--4--4--4--4-|

  GTR I
d|-------------------------------------------------|
A|-------------------------------------------------|
F|-12-12-12-12-12-12-12--7--9--9--9--9--9--9--9--7-|
C|--x--x--x--x--x--x--x--x--x--x--x--x--x--x--x--x-|
G|-10-10-10-10-10-10-10--5--7--7--7--7--7--7--7--5-|
C|-------------------------------------------------|
 |
 |GTR II
d|-------------------------------------------------|
A|-------------------------------------------------|
F|-----------------------7--9--9--9--9--9--9--9--7-|
C|--2--2--2--2--2--2--2--x--x--x--x--x--x--x--x--x-|
G|--2--2--2--2--2--2--2--5--7--7--7--7--7--7--7--5-|
C|--2--2--2--2--2--2--2----------------------------|

  GTR I
d|--8p-7--------------8p-7-------------------------|
A|--------8-10p-8-----------8-10p-8----10h12p10----|
F|-----------------9-----------------9----------12-|
C|-------------------------------------------------|
G|-------------------------------------------------|
C|-------------------------------------------------|
 |
 |GTR II
d|-------------------------------------------------|
A|-------------------------------------------------|
F|--5--5--5--5--5--5--5--5-------------------------|
C|--5--5--5--5--5--5--5--5--5--5--5--5--4--4--4--4-|
G|--3--3--3--3--3--3--3--3--5--5--5--5--5--5--5--5-|
C|--------------------------5--5--5--5--4--4--4--4-|

Verse

  GTR I
d|-------------|-------------|-------------|
A|-------------|-------------|-------------|
F|--9----------|-------------|--9----------|
C|--x----------|-------------|--x----------|
G|--7----------|-------------|--7----------|
C|-------------|-------------|-------------|
 |
 |GTR II
d|-------------|-------------|-------------|
A|-------------|-------------|-------------|
F|-------------|-------------|-------------|
C|--2----------|-------------|--2----------|
G|--2----------|-------------|--2----------|
C|--2----------|-------------|--2----------|

  GTR I
d|-------------------------------------------------|
A|-------------------------------------------------|
F|--------------------------------------8--8--8--9-|
C|--------------------------------------x--x--x--x-|
G|--------------------------------------6--6--6--7-|
C|-------------------------------------------------|
 |
 |GTR II
d|-------------------------------------------------|
A|-------------------------------------------------|
F|-------------------------------------------------|
C|-------------------------------------------------|
G|--------------------------Pickslide--------------|
C|--------------------------Pickslide--------------|

Verse 2

  GTR I
d|-------------------------------------------------|
A|-------------------------------------------------|
F|-12-12-12-12-12-12-12-12--9--9--9--9--9--9--9--9-|
C|-12-12-12-12-12-12-12-12--9--9--9--9--9--9--9--9-|
G|-10-10-10-10-10-10-10-10--7--7--7--7--7--7--7--7-|
C|-------------------------------------------------|
 |
 |GTR II
d|-------------------------------------------------|
A|-------------------------------------------------|
F|--------------------------9--9--9--9--9--9--9--9-|
C|--2--2--2--2--2--2--2--2--9--9--9--9--9--9--9--9-|
G|--2--2--2--2--2--2--2--2--7--7--7--7--7--7--7--7-|
C|--2--2--2--2--2--2--2--2-------------------------|

  GTR I,II
d|-------------------------------------------------|
A|-------------------------------------------------|
F|--5--5--5--5--5--5--5--5-------------------------|
C|--5--5--5--5--5--5--5--5--5--5--5--5--4--4--4--4-|
G|--3--3--3--3--3--3--3--3--5--5--5--5--5--5--5--5-|
C|--------------------------5--5--5--5--4--4--4--4-|

  GTR I
d|-------------------------------------------------|
A|-------------------------------------------------|
F|-12-12-12-12-12-12-12-12--9--9--9--9--9--9--9--9-|
C|-12-12-12-12-12-12-12-12--9--9--9--9--9--9--9--9-|
G|-10-10-10-10-10-10-10-10--7--7--7--7--7--7--7--7-|
C|-------------------------------------------------|
 |
 |GTR II
d|-------------------------------------------------|
A|-------------------------------------------------|
F|--------------------------9--9--9--9--9--9--9--9-|
C|--2--2--2--2--2--2--2--2--9--9--9--9--9--9--9--9-|
G|--2--2--2--2--2--2--2--2--7--7--7--7--7--7--7--7-|
C|--2--2--2--2--2--2--2--2-------------------------|

  GTR I,II
d|-------------------------------------------------|
A|-------------------------------------------------|
F|--5--5--5--5--5--5--5--5-------------------------|
C|--5--5--5--5--5--5--5--5--5--5--5--5--4--4--4--4-|
G|--3--3--3--3--3--3--3--3--5--5--5--5--5--5--5--5-|
C|--------------------------5--5--5--5--4--4--4--4-|

Pre Chorus

  GTR I
d|--2--------3--------2--------0--------2-----3----|
A|-----3--------3--------3--------3----------------|
F|--------2--------2--------2--------2-----2-----2-|
C|-------------------------------------------------|
G|-------------------------------------------------|
C|-------------------------------------------------|
 |
 |GTR II
d|-------------------------------------------------|
A|-------------------------------------------------|
F|--5--5--5--5--5--5--5--5-------------------------|
C|--5--5--5--5--5--5--5--5--5--5--5--5--5--5--5--5-|
G|--3--3--3--3--3--3--3--3--5--5--5--5--5--5--5--5-|
C|--------------------------5--5--5--5--5--5--5--5-|

  GTR I
d|--5--------3--------2--------0--------2-----3----|
A|-----3--------3--------3--------3----------------|
F|--------2--------2--------2--------2-----2-----2-|
C|-------------------------------------------------|
G|-------------------------------------------------|
C|-------------------------------------------------|
 |
 |GTR II
d|-------------------------------------------------|
A|-------------------------------------------------|
F|--7--7--7--7--7--7--7--7-------------------------|
C|--7--7--7--7--7--7--7--7--2--2--2--2--2--2--2--2-|
G|--5--5--5--5--5--5--5--5--2--2--2--2--2--2--2--2-|
C|--------------------------2--2--2--2--2--2--2--2-|

  GTR I
d|--5--------3--------2--------0--------2-----3----|
A|-----3--------3--------3--------3----------------|
F|--------2--------2--------2--------2-----2-----2-|
C|-------------------------------------------------|
G|-------------------------------------------------|
C|-------------------------------------------------|
 |
 |GTR II
d|-------------------------------------------------|
A|-------------------------------------------------|
F|--5--5--5--5--5--5--5--5-------------------------|
C|--5--5--5--5--5--5--5--5--5--5--5--5--5--5--5--5-|
G|--3--3--3--3--3--3--3--3--5--5--5--5--5--5--5--5-|
C|--------------------------5--5--5--5--5--5--5--5-|

  GTR I
d|--5--------5--------5--------5--------5--------------|
A|-----3--------3--------3--------3--------------------|
F|--------2--------2--------2--------2-----------------|
C|-----------------------------------------x-x-x-x-x-x-|
G|-----------------------------------------x-x-x-x-x-x-|
C|-----------------------------------------x-x-x-x-x-x-|
 |
 |GTR II
d|-----------------------------------------------------|
A|-----------------------------------------------------|
F|--7--7--7--7--7--7--7--7--7--7--7--7--7--------------|
C|--7--7--7--7--7--7--7--7--7--7--7--7--7--x-x-x-x-x-x-|
G|--5--5--5--5--5--5--5--5--5--5--5--5--5--x-x-x-x-x-x-|
C|-----------------------------------------x-x-x-x-x-x-|

Chorus

  GTR I
d|-------------------------------------------------|
A|-------------------------------------------------|
F|--7--------9--------7--------9--------7-----9----|
C|-----7--------7--------7--------7----------------|
G|--------5--------5--------5--------5-----5-----5-|
C|-------------------------------------------------|
 |
 |GTR II
d|-------------------------------------------------|
A|-------------------------------------------------|
F|-------------------------------------------------|
C|--2--2--2--2--2--2--2--2--2--2--2--2--2--2--2--2-|
G|--2--2--2--2--2--2--2--2--2--2--2--2--2--2--2--2-|
C|--2--2--2--2--2--2--2--2--2--2--2--2--2--2--2--2-|

  GTR I
d|-------------------------------------------------|
A|-------------------------------------------------|
F|--7--------9--------7--------9--------7-----9----|
C|-----7--------7--------7--------7----------------|
G|--------5--------5--------5--------5-----5-----5-|
C|-------------------------------------------------|
 |
 |GTR II
d|-------------------------------------------------|
A|-------------------------------------------------|
F|-------------------------------------------------|
C|--5--5--5--5--5--5--5--5--5--5--5--5--5--5--5--5-|
G|--5--5--5--5--5--5--5--5--5--5--5--5--5--5--5--5-|
C|--5--5--5--5--5--5--5--5--5--5--5--5--5--5--5--5-|

  GTR I
d|-------------------------------------------------|
A|-------------------------------------------------|
F|--7--------9--------7--------9--------7-----9----|
C|-----7--------7--------7--------7----------------|
G|--------5--------5--------5--------5-----5-----5-|
C|-------------------------------------------------|
 |
 |GTR II
d|-------------------------------------------------|
A|-------------------------------------------------|
F|--7--7--7--7--7--7--7--7--7--7--7--7--7--7--7--7-|
C|--7--7--7--7--7--7--7--7--7--7--7--7--7--7--7--7-|
G|--5--5--5--5--5--5--5--5--5--5--5--5--5--5--5--5-|
C|-------------------------------------------------|

  GTR I
d|-------------------------------------------------|
A|-------------------------------------------------|
F|-17-17-17-16-16-16-14-14-11\---------------------|
C|--x--x--x--x--x--x--x--x--x----------------------|
G|-15-15-15-14-14-14-12-12--9\---------------------|
C|-------------------------------------------------|
 |
 |GTR II
d|-------------------------------------------------|
A|-------------------------------------------------|
F|--5--5--5--5--5--5--5--5--7\---------------------|
C|--5--5--5--5--5--5--5--5--7\---------------------|
G|--3--3--3--3--3--3--3--3--5\---------------------|
C|-------------------------------------------------|

Intro

Verse 3

  GTR I,II
d|-------------------------------------------------|
A|-------------------------------------------------|
F|-------------------------------------------------|
C|--------------------------9--9--9--9--9--9--9--9-|
G|--2--2--2--2--2--2--2--2--7--7--7--7--7--7--7--7-|
C|--2--2--2--2--2--2--2--2-------------------------|
    .  .  .  .  .  .  .  .  .  .  .  .  .  .  .  .

  GTR I,II
d|-------------------------------------------------|
A|-------------------------------------------------|
F|-------------------------------------------------|
C|--5--5--5--5--5--5--5--5-------------------------|
G|--3--3--3--3--3--3--3--3--5--5--5--5--5--5--5--5-|
C|--------------------------5--5--5--5--4--4--4--4-|
    .  .  .  .  .  .  .  .  .  .  .  .  .  .  .  .

  GTR I,II
d|-------------------------------------------------|
A|-------------------------------------------------|
F|-------------------------------------------------|
C|--------------------------9--9--9--9--9--9--9--9-|
G|--2--2--2--2--2--2--2--2--7--7--7--7--7--7--7--7-|
C|--2--2--2--2--2--2--2--2-------------------------|
    .  .  .  .  .  .  .  .  .  .  .  .  .  .  .  .

  GTR I,II
d|-------------------------------------------------|
A|-------------------------------------------------|
F|-------------------------------------------------|
C|--5--5--5--5--5--5--5--5-------------------------|
G|--3--3--3--3--3--3--3--3--5--5--5--5--5--5--5--5-|
C|--------------------------5--5--5--5--4--4--4--4-|
    .  .  .  .  .  .  .  .  .  .  .  .  .  .  .  .

Pre Chorus 2

  GTR I
d|--2--------3--------2--------0--------2-----3----|
A|-----3--------3--------3--------3----------------|
F|--------2--------2--------2--------2-----2-----2-|
C|-------------------------------------------------|
G|-------------------------------------------------|
C|-------------------------------------------------|
 |
 |GTR II
d|-------------------------------------------------|
A|-------------------------------------------------|
F|--5--5--5--5--5--5--5--5-------------------------|
C|--5--5--5--5--5--5--5--5--5--5--5--5--5--5--5--5-|
G|--3--3--3--3--3--3--3--3--5--5--5--5--5--5--5--5-|
C|--------------------------5--5--5--5--5--5--5--5-|

  GTR I
d|--5--------3--------2--------0--------2-----3----|
A|-----3--------3--------3--------3----------------|
F|--------2--------2--------2--------2-----2-----2-|
C|-------------------------------------------------|
G|-------------------------------------------------|
C|-------------------------------------------------|
 |
 |GTR II
d|-------------------------------------------------|
A|-------------------------------------------------|
F|--7--7--7--7--7--7--7--7-------------------------|
C|--7--7--7--7--7--7--7--7--2--2--2--2--2--2--2--2-|
G|--5--5--5--5--5--5--5--5--2--2--2--2--2--2--2--2-|
C|--------------------------2--2--2--2--2--2--2--2-|

  GTR I
d|--5--------3--------2--------0--------2-----3----|
A|-----3--------3--------3--------3----------------|
F|--------2--------2--------2--------2-----2-----2-|
C|-------------------------------------------------|
G|-------------------------------------------------|
C|-------------------------------------------------|
 |
 |GTR II
d|-------------------------------------------------|
A|-------------------------------------------------|
F|--5--5--5--5--5--5--5--5-------------------------|
C|--5--5--5--5--5--5--5--5--5--5--5--5--5--5--5--5-|
G|--3--3--3--3--3--3--3--3--5--5--5--5--5--5--5--5-|
C|--------------------------5--5--5--5--5--5--5--5-|

  GTR I
d|--5--------5--------5--------5--------5----------|
A|-----3--------3--------3--------3----------------|
F|--------2--------2--------2--------2-------------|
C|-------------------------------------------------|
G|-------------------------------------------------|
C|-------------------------------------------------|
 |
 |GTR II
d|-------------------------------------------------|
A|-------------------------------------------------|
F|--7--------------------------7--------7--7--7--7-|
C|--7--7--7--7--7--7--7--7--7--7--7--7--x--x--x--x-|
G|--5--5--5--5--5--5--5--5--5--5--5--5--5--5--5--5-|
C|-------------------------------------------------|
       .  .  .  .  .  .  .  .     .  .

Chorus 2

  GTR I
d|-------------------------------------------------|
A|-------------------------------------------------|
F|--7--------9--------7--------9--------7-----9----|
C|-----7--------7--------7--------7----------------|
G|--------5--------5--------5--------5-----5-----5-|
C|-------------------------------------------------|
 |
 |GTR II
d|-------------------------------------------------|
A|-------------------------------------------------|
F|-------------------------------------------------|
C|--2--2--2--2--2--2--2--2--2--2--2--2--2--2--2--2-|
G|--2--2--2--2--2--2--2--2--2--2--2--2--2--2--2--2-|
C|--2--2--2--2--2--2--2--2--2--2--2--2--2--2--2--2-|

  GTR I
d|-------------------------------------------------|
A|-------------------------------------------------|
F|--7--------9--------7--------9--------7-----9----|
C|-----7--------7--------7--------7----------------|
G|--------5--------5--------5--------5-----5-----5-|
C|-------------------------------------------------|
 |
 |GTR II
d|-------------------------------------------------|
A|-------------------------------------------------|
F|-------------------------------------------------|
C|--5--5--5--5--5--5--5--5--5--5--5--5--5--5--5--5-|
G|--5--5--5--5--5--5--5--5--5--5--5--5--5--5--5--5-|
C|--5--5--5--5--5--5--5--5--5--5--5--5--5--5--5--5-|

  GTR I
d|-------------------------------------------------|
A|-------------------------------------------------|
F|--7--------9--------7--------9--------7-----9----|
C|-----7--------7--------7--------7----------------|
G|--------5--------5--------5--------5-----5-----5-|
C|-------------------------------------------------|
 |
 |GTR II
d|-------------------------------------------------|
A|-------------------------------------------------|
F|--7--7--7--7--7--7--7--7--7--7--7--7--7--7--7--7-|
C|--7--7--7--7--7--7--7--7--7--7--7--7--7--7--7--7-|
G|--5--5--5--5--5--5--5--5--5--5--5--5--5--5--5--5-|
C|-------------------------------------------------|

  GTR I
d|-------------------------------------------------|
A|-------------------------------------------------|
F|-17-17-17-16-16-16-14-14-11-11-11-11-11-12-12-12-|
C|--x--x--x--x--x--x--x--x--x--x--x--x--x--x--x--x-|
G|-15-15-15-14-14-14-12-12--9--9--9--9--9-10-10-10-|
C|-------------------------------------------------|
 |
 |GTR II
d|-------------------------------------------------|
A|-------------------------------------------------|
F|--5--5--5--5--5--5--5--5--7--7--7--7--7--7--7--7-|
C|--5--5--5--5--5--5--5--5--7--7--7--7--7--7--7--7-|
G|--3--3--3--3--3--3--3--3--5--5--5--5--5--5--5--5-|
C|-------------------------------------------------|

  GTR I
d|-------------------------------------------------|
A|-------------------------------------------------|
F|--7--------9--------7--------9--------7-----9----|
C|-----7--------7--------7--------7----------------|
G|--------5--------5--------5--------5-----5-----5-|
C|-------------------------------------------------|
 |
 |GTR II
d|-------------------------------------------------|
A|-------------------------------------------------|
F|-------------------------------------------------|
C|--2--2--2--2--2--2--2--2--2--2--2--2--2--2--2--2-|
G|--2--2--2--2--2--2--2--2--2--2--2--2--2--2--2--2-|
C|--2--2--2--2--2--2--2--2--2--2--2--2--2--2--2--2-|

  GTR I
d|-------------------------------------------------|
A|-------------------------------------------------|
F|--7--------9--------7--------9--------7-----9----|
C|-----7--------7--------7--------7----------------|
G|--------5--------5--------5--------5-----5-----5-|
C|-------------------------------------------------|
 |
 |GTR II
d|-------------------------------------------------|
A|-------------------------------------------------|
F|-------------------------------------------------|
C|--5--5--5--5--5--5--5--5--5--5--5--5--5--5--5--5-|
G|--5--5--5--5--5--5--5--5--5--5--5--5--5--5--5--5-|
C|--5--5--5--5--5--5--5--5--5--5--5--5--5--5--5--5-|

  GTR I
d|-------------------------------------------------|
A|-------------------------------------------------|
F|--7--------9--------7--------9--------7-----9----|
C|-----7--------7--------7--------7----------------|
G|--------5--------5--------5--------5-----5-----5-|
C|-------------------------------------------------|
 |
 |GTR II
d|-------------------------------------------------|
A|-------------------------------------------------|
F|--7--7--7--7--7--7--7--7--7--7--7--7--7--7--7--7-|
C|--7--7--7--7--7--7--7--7--7--7--7--7--7--7--7--7-|
G|--5--5--5--5--5--5--5--5--5--5--5--5--5--5--5--5-|
C|-------------------------------------------------|

  GTR I
d|-------------------------------------------------|
A|--------------------------------------5/---------|
F|-17-17-17-16-16-16-14-14-11\---------------------|
C|--x--x--x--x--x--x--x--x--x----------------------|
G|-15-15-15-14-14-14-12-12--9\---------------------|
C|-------------------------------------------------|
 |
 |GTR II
d|-------------------------------------------------|
A|-------------------------------------------------|
F|--5--5--5--5--5--5--5--5--7\---------------------|
C|--5--5--5--5--5--5--5--5--7\---------------------|
G|--3--3--3--3--3--3--3--3--5\---------------------|
C|-------------------------------------------------|

Interlude

    |--------------------TRM---------------------|
d|-------------------------------------------------|
A|-12-12-12-12-12-12-12-12-12-12-12-12-12b-b--b--b-|
F|-------------------------------------------------|
C|-------------------------------------------------|
G|-------------------------------------------------|
C|-------------------------------------------------|
 |
 |GTR II
d|-------------------------------------------------|
A|-------------------------------------------------|
F|-----------------------------5--5--5--5----------|
C|--2--2--2--1--1--1--0--0--0--5--5--5--5--5--5--5-|
G|--2--2--2--1--1--1--0--0--0--3--3--3--3--5--5--5-|
C|--2--2--2--1--1--1--0--0--0--------------5--5--5-|
 |
 |GTR III
d|-------------------------------------------------|
A|-------------------------------------------------|
F|--9--9--9--8--8--8--7--7--7--5--5--5--5--7--7--7-|
C|--x--x--x--x--x--x--x--x--x--x--x--x--x--x--x--x-|
G|--7--7--7--6--6--6--5--5--5--3--3--3--3--5--5--5-|
C|-------------------------------------------------|

    |--------------------TRM---------------------|
d|-------------------------------------------------|
A|-12-12-12-12-12-12-12-12-12-12-12-12-12b-b--b--b-|
F|-------------------------------------------------|
C|-------------------------------------------------|
G|-------------------------------------------------|
C|-------------------------------------------------|
 |
 |GTR II
d|-------------------------------------------------|
A|-------------------------------------------------|
F|-----------------------------5--5--5--5--7--7--7-|
C|--2--2--2--1--1--1--0--0--0--5--5--5--5--x--x--x-|
G|--2--2--2--1--1--1--0--0--0--3--3--3--3--5--5--5-|
C|--2--2--2--1--1--1--0--0--0----------------------|
 |
 |GTR III
d|-------------------------------------------------|
A|-------------------------------------------------|
F|--9--9--9--8--8--8--7--7--7--5--5--5--5--7--7--7-|
C|--x--x--x--x--x--x--x--x--x--x--x--x--x--x--x--x-|
G|--7--7--7--6--6--6--5--5--5--3--3--3--3--5--5--5-|
C|-------------------------------------------------|

    |--------------------TRM---------------------|
d|-------------------------------------------------|
A|-12-12-12-12-12-12-12-12-12-12-12-12-12b-b--b--b-|
F|-------------------------------------------------|
C|-------------------------------------------------|
G|-------------------------------------------------|
C|-------------------------------------------------|
 |
 |GTR II
d|-------------------------------------------------|
A|-------------------------------------------------|
F|-----------------------------5--5--5--5----------|
C|--2--2--2--1--1--1--0--0--0--5--5--5--5--5--5--5-|
G|--2--2--2--1--1--1--0--0--0--3--3--3--3--5--5--5-|
C|--2--2--2--1--1--1--0--0--0--------------5--5--5-|
 |
 |GTR III
d|-------------------------------------------------|
A|-------------------------------------------------|
F|--9--9--9--8--8--8--7--7--7--5--5--5--5--7--7--7-|
C|--x--x--x--x--x--x--x--x--x--x--x--x--x--x--x--x-|
G|--7--7--7--6--6--6--5--5--5--3--3--3--3--5--5--5-|
C|-------------------------------------------------|

    |--------------------TRM---------------------|
d|-------------------------------------------------|
A|-12-12-12-12-12-12-12-12-12-12-12-12-12b-b--b--b-|
F|-------------------------------------------------|
C|-------------------------------------------------|
G|-------------------------------------------------|
C|-------------------------------------------------|
 |
 |GTR II
d|-------------------------------------------------|
A|-------------------------------------------------|
F|-------------------------------------------------|
C|--7--7--7--7--7--7--7--7-10-10-10-10-10-10-10-10-|
G|--7--7--7--7--7--7--7--7-10-10-10-10-10-10-10-10-|
C|--7--7--7--7--7--7--7--7-10-10-10-10-10-10-10-10-|
 |
 |GTR III
d|-------------------------------------------------|
A|-------------------------------------------------|
F|--9--9--9--9--9--9--9--9-12-12-12-12-12-12-12-12-|
C|--x--x--x--x--x--x--x--x--x--x--x--x--x--x--x--x-|
G|--7--7--7--7--7--7--7--7-10-10-10-10-10-10-10-10-|
C|-------------------------------------------------|

    |--------------------TRM---------------------|
d|-------------------------------------------------|
A|-12-12-12-12-12-12-12-12-12-12-12-12-12b-b--b--b-|
F|-------------------------------------------------|
C|-------------------------------------------------|
G|-------------------------------------------------|
C|-------------------------------------------------|
 |
 |GTR II
d|-------------------------------------------------|
A|-------------------------------------------------|
F|-----------------------------5--5--5--5----------|
C|--2--------1--------0--------5--5--5--5--5--5--5-|
G|--2--------1--------0--------3--3--3--3--5--5--5-|
C|--2--------1--------0--------------------5--5--5-|
 |
 |GTR III
d|-------------------------------------------------|
A|-------------------------------------------------|
F|--9--9--9--8--8--8--7--7--7--5--5--5--5--7--7--7-|
C|--x--x--x--x--x--x--x--x--x--x--x--x--x--x--x--x-|
G|--7--7--7--6--6--6--5--5--5--3--3--3--3--5--5--5-|
C|-------------------------------------------------|

    |--------------------TRM---------------------|
d|-------------------------------------------------|
A|-12-12-12-12-12-12-12-12-12-12-12-12-12b-b--b--b-|
F|-------------------------------------------------|
C|-------------------------------------------------|
G|-------------------------------------------------|
C|-------------------------------------------------|
 |
 |GTR II
d|-------------------------------------------------|
A|-------------------------------------------------|
F|-----------------------------5--5--5--5--7--7--7-|
C|--2--------1--------0--------5--5--5--5--x--x--x-|
G|--2--------1--------0--------3--3--3--3--5--5--5-|
C|--2--------1--------0----------------------------|
 |
 |GTR III
d|-------------------------------------------------|
A|-------------------------------------------------|
F|--9--9--9--8--8--8--7--7--7--5--5--5--5--7--7--7-|
C|--x--x--x--x--x--x--x--x--x--x--x--x--x--x--x--x-|
G|--7--7--7--6--6--6--5--5--5--3--3--3--3--5--5--5-|
C|-------------------------------------------------|

    |--------------------TRM---------------------|
d|-------------------------------------------------|
A|-12-12-12-12-12-12-12-12-12-12-12-12--8--8--8--8-|
F|-------------------------------------------------|
C|-------------------------------------------------|
G|-------------------------------------------------|
C|-------------------------------------------------|
 |
 |GTR II
d|-------------------------------------------------|
A|-------------------------------------------------|
F|-----------------------------5--5--5--5----------|
C|--2--------1--------0--------5--5--5--5--5--5--5-|
G|--2--------1--------0--------3--3--3--3--5--5--5-|
C|--2--------1--------0--------------------5--5--5-|
 |
 |GTR III
d|-------------------------------------------------|
A|-------------------------------------------------|
F|--9--9--9--8--8--8--7--7--7--5--5--5--5--7--7--7-|
C|--x--x--x--x--x--x--x--x--x--x--x--x--x--x--x--x-|
G|--7--7--7--6--6--6--5--5--5--3--3--3--3--5--5--5-|
C|-------------------------------------------------|

    |--------------------TRM---------------------|
d|-------------------------------------------------|
A|--5--5--5--5--5--5--5--5--8--8--8--8--8--8--8--8-|
F|-------------------------------------------------|
C|-------------------------------------------------|
G|-------------------------------------------------|
C|-------------------------------------------------|
 |
 |GTR II
d|-------------------------------------------------|
A|-------------------------------------------------|
F|-------------------------------------------------|
C|--7--7--7--7--7--7--7--7-10-10-10-10--5--5--5--5-|
G|--7--7--7--7--7--7--7--7-10-10-10-10--5--5--5--5-|
C|--7--7--7--7--7--7--7--7-10-10-10-10--5--5--5--5-|
 |
 |GTR III
d|-------------------------------------------------|
A|-------------------------------------------------|
F|--9--9--9--9--9--9--9--9-12-12-12-12-11-11-11-11-|
C|--x--x--x--x--x--x--x--x--x--x--x--x--x--x--x--x-|
G|--7--7--7--7--7--7--7--7-10-10-10-10--9--9--9--9-|
C|-------------------------------------------------|

Bridge

  GTR I
d|-------------|-------------|-------------|-------------|
A|--5----------|-------------|-------------|-------------|
F|-------------|-------------|-------------|-------------|
C|-------------|-------------|-------------|-------------|
G|-------------|-------------|-------------|-------------|
C|-------------|-------------|-------------|-------------|
 |
 |GTR II
d|-------------|-------------|-------------|-------------|
A|-------------|-------------|-------------|-------------|
F|-------------|-------------|-------------|-------------|
C|--2----------|-------------|-------------|-------------|
G|--2----------|-------------|-------------|-------------|
C|--2----------|-------------|-------------|-------------|

Chorus 3

  GTR I
d|-------------------------------------------------|
A|-------------------------------------------------|
F|--7--------9--------7--------9--------7-----9----|
C|-----7--------7--------7--------7----------------|
G|--------5--------5--------5--------5-----5-----5-|
C|-------------------------------------------------|
 |
 |GTR II
d|-------------------------------------------------|
A|-------------------------------------------------|
F|-------------------------------------------------|
C|--2--2--2--2--2--2--2--2--2--2--2--2--2--2--2--2-|
G|--2--2--2--2--2--2--2--2--2--2--2--2--2--2--2--2-|
C|--2--2--2--2--2--2--2--2--2--2--2--2--2--2--2--2-|

  GTR I
d|-------------------------------------------------|
A|-------------------------------------------------|
F|--7--------9--------7--------9--------7-----9----|
C|-----7--------7--------7--------7----------------|
G|--------5--------5--------5--------5-----5-----5-|
C|-------------------------------------------------|
 |
 |GTR II
d|-------------------------------------------------|
A|-------------------------------------------------|
F|-------------------------------------------------|
C|--5--5--5--5--5--5--5--5--5--5--5--5--5--5--5--5-|
G|--5--5--5--5--5--5--5--5--5--5--5--5--5--5--5--5-|
C|--5--5--5--5--5--5--5--5--5--5--5--5--5--5--5--5-|

  GTR I
d|-------------------------------------------------|
A|-------------------------------------------------|
F|--7--------9--------7--------9--------7-----9----|
C|-----7--------7--------7--------7----------------|
G|--------5--------5--------5--------5-----5-----5-|
C|-------------------------------------------------|
 |
 |GTR II
d|-------------------------------------------------|
A|-------------------------------------------------|
F|--7--7--7--7--7--7--7--7--7--7--7--7--7--7--7--7-|
C|--7--7--7--7--7--7--7--7--7--7--7--7--7--7--7--7-|
G|--5--5--5--5--5--5--5--5--5--5--5--5--5--5--5--5-|
C|-------------------------------------------------|

  GTR I
d|-------------------------------------------------|
A|-------------------------------------------------|
F|-17-17-17-16-16-16-14-14-11-11-11-11-11-12-12-12-|
C|--x--x--x--x--x--x--x--x--x--x--x--x--x--x--x--x-|
G|-15-15-15-14-14-14-12-12--9--9--9--9--9-10-10-10-|
C|-------------------------------------------------|
 |
 |GTR II
d|-------------------------------------------------|
A|-------------------------------------------------|
F|--5--5--5--5--5--5--5--5--7--7--7--7--7--7--7--7-|
C|--5--5--5--5--5--5--5--5--7--7--7--7--7--7--7--7-|
G|--3--3--3--3--3--3--3--3--5--5--5--5--5--5--5--5-|
C|-------------------------------------------------|

  GTR I
d|-------------------------------------------------|
A|-------------------------------------------------|
F|--7--------9--------7--------9--------7-----9----|
C|-----7--------7--------7--------7----------------|
G|--------5--------5--------5--------5-----5-----5-|
C|-------------------------------------------------|
 |
 |GTR II
d|-------------------------------------------------|
A|-------------------------------------------------|
F|-------------------------------------------------|
C|--2--2--2--2--2--2--2--2--2--2--2--2--2--2--2--2-|
G|--2--2--2--2--2--2--2--2--2--2--2--2--2--2--2--2-|
C|--2--2--2--2--2--2--2--2--2--2--2--2--2--2--2--2-|

  GTR I
d|-------------------------------------------------|
A|-------------------------------------------------|
F|--7--------9--------7--------9--------7-----9----|
C|-----7--------7--------7--------7----------------|
G|--------5--------5--------5--------5-----5-----5-|
C|-------------------------------------------------|
 |
 |GTR II
d|-------------------------------------------------|
A|-------------------------------------------------|
F|-------------------------------------------------|
C|--5--5--5--5--5--5--5--5--5--5--5--5--5--5--5--5-|
G|--5--5--5--5--5--5--5--5--5--5--5--5--5--5--5--5-|
C|--5--5--5--5--5--5--5--5--5--5--5--5--5--5--5--5-|

  GTR I
d|-------------------------------------------------|
A|-------------------------------------------------|
F|--7--------9--------7--------9--------7-----9----|
C|-----7--------7--------7--------7----------------|
G|--------5--------5--------5--------5-----5-----5-|
C|-------------------------------------------------|
 |
 |GTR II
d|-------------------------------------------------|
A|-------------------------------------------------|
F|--7--7--7--7--7--7--7--7--7--7--7--7--7--7--7--7-|
C|--7--7--7--7--7--7--7--7--7--7--7--7--7--7--7--7-|
G|--5--5--5--5--5--5--5--5--5--5--5--5--5--5--5--5-|
C|-------------------------------------------------|

  GTR I
d|-------------------------------------------------|
A|-------------------------------------------------|
F|-17-17-17-16-16-16-14-14-11-11-11-11-11-12-12-12-|
C|--x--x--x--x--x--x--x--x--x--x--x--x--x--x--x--x-|
G|-15-15-15-14-14-14-12-12--9--9--9--9--9-10-10-10-|
C|-------------------------------------------------|
 |
 |GTR II
d|-------------------------------------------------|
A|-------------------------------------------------|
F|--5--5--5--5--5--5--5--5--7--7--7--7--7--7--7--7-|
C|--5--5--5--5--5--5--5--5--7--7--7--7--7--7--7--7-|
G|--3--3--3--3--3--3--3--3--5--5--5--5--5--5--5--5-|
C|-------------------------------------------------|

Outro

    |--------------------TRM---------------------|
d|-------------------------------------------------|
A|-12-12-12-12-12-12-12-12-12-12-12-12-12b-b--b--b-|
F|-------------------------------------------------|
C|-------------------------------------------------|
G|-------------------------------------------------|
C|-------------------------------------------------|
 |
 |GTR II
d|-------------------------------------------------|
A|-------------------------------------------------|
F|-----------------------------5--5--5--5----------|
C|--2--------1--------0--------5--5--5--5--5--5--5-|
G|--2--------1--------0--------3--3--3--3--5--5--5-|
C|--2--------1--------0--------------------5--5--5-|

    |--------------------TRM---------------------|
d|-------------------------------------------------|
A|-12-12-12-12-12-12-12-12-12-12-12-12-12b-b--b--b-|
F|-------------------------------------------------|
C|-------------------------------------------------|
G|-------------------------------------------------|
C|-------------------------------------------------|
 |
 |GTR II
d|-------------------------------------------------|
A|-------------------------------------------------|
F|-----------------------------5--5--5--5--7--7--7-|
C|--2--------1--------0--------5--5--5--5--x--x--x-|
G|--2--------1--------0--------3--3--3--3--5--5--5-|
C|--2--------1--------0----------------------------|

    |--------------------TRM---------------------|
d|-------------------------------------------------|
A|-12-12-12-12-12-12-12-12-12-12-12-12--8--8--8--8-|
F|-------------------------------------------------|
C|-------------------------------------------------|
G|-------------------------------------------------|
C|-------------------------------------------------|
 |
 |GTR II
d|-------------------------------------------------|
A|-------------------------------------------------|
F|-----------------------------5--5--5--5----------|
C|--2--------1--------0--------5--5--5--5--5--5--5-|
G|--2--------1--------0--------3--3--3--3--5--5--5-|
C|--2--------1--------0--------------------5--5--5-|

    |--------------------TRM---------------------|
d|-------------------------------------------------|
A|--5--5--5--5--5--5--5--5--8--8--8--8--8--8--8--8-|
F|-------------------------------------------------|
C|-------------------------------------------------|
G|-------------------------------------------------|
C|-------------------------------------------------|
 |
 |GTR II
d|-------------------------------------------------|
A|-------------------------------------------------|
F|-------------------------------------------------|
C|--7--7--7--7--7--7--7--7-10-10-10-10--5--5--5--5-|
G|--7--7--7--7--7--7--7--7-10-10-10-10--5--5--5--5-|
C|--7--7--7--7--7--7--7--7-10-10-10-10--5--5--5--5-|

  GTR I
d|-------------------------------------------------|
A|--5----------------------------------------------|
F|-------------------------------------------------|
C|-------------------------------------------------|
G|-------------------------------------------------|
C|-------------------------------------------------|
 |
 |GTR II
d|-------------------------------------------------|
A|-------------------------------------------------|
F|-------------------------------------------------|
C|--2----------------------------------------------|
G|--2----------------------------------------------|
C|--2----------------------------------------------|


| b  bend
| r  release bend
|trp triplet
|PH. pinch harmonic
|fbk feedback
| .  palm-mute
| /  slide up
| \  slide down
| h  hammer-on
| p  pull-off
| ~  vibrato
|(7) harmonic
| x  Mute note
===============================================================================





Comments


Popular A Day To Remember tabs & chords
All I Want 1 Bass Tabs
Danger Of Starting A Fire Bass Tabs
Its Complicated 2 Bass Tabs
All I Want 4 Chords
Right Back At It Again 1 Chords
You Shouldve Killed Me When You Had The Chance 2 Chords
All I Want Tabs
Have Faith In Me 4 Tabs
Im Made Of Wax Larry What Are You Made Of 5 Tabs
Over My Head Cable Car Tabs


Song lyrics



↑ Back to top | Tablatures and chords are parodies/interpretations of the original songs. You may use it for private study, scholarship, research or language learning purposes only
© 2014 AZChords.com Contact us | Privacy policy | DMCA | Add/correct tabs | Request tabs | Top 50 tabs