» » »

A Day To Remember, 2nd Sucks Bass tabs (ver.1)

Artists:  A B C D E F G H I J K L M N O P Q R S T U V W X Y Z # 

2nd Sucks Bass tabs (ver.1)

A Day To Remember Tabs
 Rating:
4.3/5 (6 votes)
2nd Sucks lessons Tabs too difficult? Try these video lessons and learn fast
1
                -------------------------------------------------------------------------------
-------------------------------------------------------------------------------


Tuning: Drop B (B, F#, B, E)


Amazing song by an amazing band. As a new section with a difficult rhythm comes 
in I have lengthened the tab the first time round to try and help you get it.




Intro:

 (wait until 0:13ish)

   FIGHT!

E |---------------------------------|---------------------------------|
B |---------------------------------|---------------------------------|
F#|---------------------------------|---------------------------------|
B |--1-1-1---1-------1-1---1-1---1-1|--1-1-1---1-----------1-1-1-1-1-1|
     1   +   2   +   3   +   4   +     1   +   2   +   3   +   4   +   


E |---------------------------------|---------------------------------|
B |---------------------------------|---------------------------------|
F#|---------------------------------|---------------------------------|
B |--1-1-1---1-------1-1---1-1---1-1|--1-1-1---1----------------------|
     1   +   2   +   3   +   4   +     1   +   2   +   3   +   4   +   

E |-----------------|-----------------|-----------------|-----------------|
B |-----------------|-----------------|-----------------|-----------------|
F#|-----------------|-----------------|-----------------|-----------------|
B |-111-1---11-11-11|-111-1-----111111|-111-1---11-11-11|-111-1-----------|
    1 + 2 + 3 + 4 +   1 + 2 + 3 + 4 +   1 + 2 + 3 + 4 +   1 + 2 + 3 + 4 + 



 Verse 1:


E |-----------------|-----------------|-----------------|-----------------|
B |-----------------|-----------------|-----------------|-----------------|
F#|-----------------|-----------------|-----------------|-----------------|
B |-111-1---11-11-11|-111-1-----111111|-111-1---11-11-11|-111-1-----------|
    1 + 2 + 3 + 4 +   1 + 2 + 3 + 4 +   1 + 2 + 3 + 4 +   1 + 2 + 3 + 4 + 

E |-----------------|-----------------|-----------------|-----------------|
B |-----------------|-----------------|-----------------|-----------------|
F#|-----------------|-----------------|-----------------|-----------------|
B |-111-1---11-11-11|-111-1-----111111|-111-1---11-11-11|-111-1-----------|
    1 + 2 + 3 + 4 +   1 + 2 + 3 + 4 +   1 + 2 + 3 + 4 +   1 + 2 + 3 + 4 + 



 Chorus:

E |---------------------------------|---------------------------------|
B |---------------------------------|---------------------------------|
F#|---------------------------------|---------------------------------|
B |--0-------0-----------0-0-0---0-0|--0---0---0-----------3---3---6--|
     1   +   2   +   3   +   4   +     1   +   2   +   3   +   4   + 
  
E |---------------------------------|---------------------------------|
B |---------------------------------|---------------------------------|
F#|---------------------------------|----------------------3---3---6--|
B |--0-------0-----------0-0-0---0-0|--0---0---0----------------------|
     1   +   2   +   3   +   4   +     1   +   2   +   3   +   4   +   

E |-----------------|-----------------|-----------------|-----------------|
B |-----------------|-----------------|-----------------|-----------------|
F#|-----------------|-----------------|-----------------|-----------3-3-6-|
B |-0---0-----000-00|-0-0-0-----3-3-6-|-0---0-----000-00|-0-0-0-----------|
    1 + 2 + 3 + 4 +   1 + 2 + 3 + 4 +   1 + 2 + 3 + 4 +   1 + 2 + 3 + 4 +



 Verse 2:

E |-----------------|-----------------|-----------------|-----------------|
B |-----------------|-----------------|-----------------|-----------------|
F#|-----------------|-----------------|-----------------|-----------------|
B |-111-1---11-11-11|-111-1-----111111|-111-1---11-11-11|-----------------|
    1 + 2 + 3 + 4 +   1 + 2 + 3 + 4 +   1 + 2 + 3 + 4 +   1 + 2 + 3 + 4 + 

E |-----------------|-----------------|-----------------|-----------------|
B |-----------------|-----------------|-----------------|-----------------|
F#|-----------------|-----------------|-----------------|-----------------|
B |-111-1---11-11-11|-111-1-----111111|-111-1---11-11-11|-111-1-----------|
    1 + 2 + 3 + 4 +   1 + 2 + 3 + 4 +   1 + 2 + 3 + 4 +   1 + 2 + 3 + 4 + 



 Chorus:

E |-----------------|-----------------|-----------------|-----------------|
B |-----------------|-----------------|-----------------|-----------------|
F#|-----------------|-----------------|-----------------|-----------3-3-6-|
B |-0---0-----000-00|-0-0-0-----3-3-6-|-0---0-----000-00|-0-0-0-----------|
    1 + 2 + 3 + 4 +   1 + 2 + 3 + 4 +   1 + 2 + 3 + 4 +   1 + 2 + 3 + 4 +  

E |-----------------|-----------------|-----------------|-----------------|
B |-----------------|-----------------|-----------------|-----------------|
F#|-----------------|-----------------|-----------------|-----------3-3-6-|
B |-0---0-----000-00|-0-0-0-----3-3-6-|-0---0-----000-00|-0-0-0-----------|
    1 + 2 + 3 + 4 +   1 + 2 + 3 + 4 +   1 + 2 + 3 + 4 +   1 + 2 + 3 + 4 +



 Pre-Breakdown Build up:

E |-----------------|-----------------|-----------------|-----------------|
B |-----------------|-----------------|-----------------|-----------------|
F#|-----------------|-----------------|-----------------|-----------------|
B |-----------------|---0-000-000-000-|-----------------|---0-000---0-000-|
    1 + 2 + 3 + 4 +   1 + 2 + 3 + 4 +   1 + 2 + 3 + 4 +   1 + 2 + 3 + 4 + 

E |-----------------|-----------------|-----------------|-----------------|
B |-----------------|-----------------|-----------------|-----------------|
F#|-----------------|-----------------|-----------------|-----------------|
B |-7///0-----------|---0-000-000-000-|-7///0-----------|---0-0-----------|
    1 + 2 + 3 + 4 +   1 + 2 + 3 + 4 +   1 + 2 + 3 + 4 +   1 + 2 + 3 + 4 + 



 Breakdown:

E |---------------------------------|---------------------------------|
B |---------------------------------|---------------------------------|
F#|---------------------------------|---------------------------------|
B |--7///////0-------------------0--|--0-0-0-0-----0---0-0-0-0-----0--|
     1   +   2   +   3   +   4   +     1   +   2   +   3   +   4   + 
  
E |---------------------------------|---------------------------------|
B |---------------------------------|---------------------------------|
F#|---------------------------------|---------------------------------|
B |--0-------0-------------------0--|--0-0-0-0-----0---8---8---8---8--|
     1   +   2   +   3   +   4   +     1   +   2   +   3   +   4   +  

E |---------------------------------|---------------------------------|
B |---------------------------------|---------------------------------|
F#|---------------------------------|---------------------------------|
B |--7///////0-------------------0--|--0-0-0-0-----0---0-0-0-0-----0--|
     1   +   2   +   3   +   4   +     1   +   2   +   3   +   4   + 
  
E |---------------------------------|---------------------------------|
B |---------------------------------|---------------------------------|
F#|---------------------------------|---------------------------------|
B |--0-------0-------------------0--|--0-0-0-0-----0---8---8---8---8--|
     1   +   2   +   3   +   4   +     1   +   2   +   3   +   4   +  



 Bridge

E |-----------------|-----------------|-----------------|-----------------|
B |-----------------|-----------------|-----------------|-----------------|
F#|-----------------|-----------------|-----------------|-----------------|
B |-8-0-0-0-0-0-0-4-|-4-0-0-0-0-0-0-1-|-1-0-0-0-0-0-0-0-|-0-8-8-8-8-4-4-4-|
    1 + 2 + 3 + 4 +   1 + 2 + 3 + 4 +   1 + 2 + 3 + 4 +   1 + 2 + 3 + 4 + 

E |-----------------|-----------------|-----------------|-----------------|
B |-----------------|-----------------|-----------------|-----------------|
F#|-----------------|-----------------|-----------------|-----------------|
B |-8-0-0-0-0-0-0-4-|-4-0-0-0-0-0-0-1-|-1-0-0-0-0-0-0-0-|-0-8-8-8-8-4-4-4-|
    1 + 2 + 3 + 4 +   1 + 2 + 3 + 4 +   1 + 2 + 3 + 4 +   1 + 2 + 3 + 4 + 



 Post-Bridge Interlude

E |-----------------|-----------------|-----------------|-----------------|
B |-----------------|-----------------|-----------------|-----------------|
F#|-----------------|-----------------|-----------------|-----------------|
B |-0---0-----000-00|-0-0-0-----------|-0---0-----000-00|-0-0-0-----------|
    1 + 2 + 3 + 4 +   1 + 2 + 3 + 4 +   1 + 2 + 3 + 4 +   1 + 2 + 3 + 4 +  



 Chorus

E |-----------------|-----------------|-----------------|-----------------|
B |-----------------|-----------------|-----------------|-----------------|
F#|-----------------|-----------------|-----------------|-----------3-3-6-|
B |-0---0-----000-00|-0-0-0-----3-3-6-|-0---0-----000-00|-0-0-0-----------|
    1 + 2 + 3 + 4 +   1 + 2 + 3 + 4 +   1 + 2 + 3 + 4 +   1 + 2 + 3 + 4 +  

E |-----------------|-----------------|-----------------|-----------------|
B |-----------------|-----------------|-----------------|-----------------|
F#|-----------------|-----------------|-----------------|-----------3-3-6-|
B |-0---0-----000-00|-0-0-0-----3-3-6-|-0---0-----000-00|-0-0-0-----------|
    1 + 2 + 3 + 4 +   1 + 2 + 3 + 4 +   1 + 2 + 3 + 4 +   1 + 2 + 3 + 4 +


| /  slide up
| \  slide down
| h  hammer-on
| p  pull-off
===============================================================================
            
Submit corrections

comments powered by Disqus
↑ Back to top | A Day To Remember Bass for 2nd Sucks. Lyrics for acoustic guitar and electric guitar. 1 Tablatures and chords are parodies/interpretations of the original songs. You may use it for private study, scholarship, research or language learning purposes only